Blink 182 - All The Small Things Chords & Tabs

 

All The Small Things Chords & Tabs

Blink 182 Chords & Tabs

Version: 11 Type: Tab 0 ratings
1 star 2 stars 3 stars 4 stars 5 stars
comments

All The Small Things Tab

Blink 182
All the Small Things
tabbed by kevin(Easy_Out@imapunk.com)

ok i know this tab is 110% correct... i got the solo from when Blink 182 performed on saturday night live NOT THE CD!

intro: w/ heavy distortion
-----------------------------------------------------------
---------------------6-6-6-6-5-5-5-5-----------------------
---5-5-5-5-5-5-5-5-5-5-5-5-5-5-5-5-5-----------------5x5x5-
-3-5-5-5-5-5-5-5-5-5-3-3-3-3-3-3-3-3-5-5-5-5-5-5-5-5-5x5x5-
-3-3-3-3-3-3-3-3-3-3-----------------5-5-5-5-5-5-5-5-3x3x3-
-1-----------------------------------3-3-3-3-3-3-3-3-------
repeat once
verse: w/ heavy distortion and p.m.
--------------------------------------------
--------------------------------------------
--------------------------------------------
-55555555-----------------------------------
-33333333x-55555555x-33333333x-55555555x----
---------x-33333333x-11111111x-33333333x----

pre-chorus: w/ light distorion
--------
--------
-5------
-5------
-3-5-3--
---3-1--
[ Tab from: http://www.guitartabs.cc/tabs/b/blink_182/all_the_small_things_tab_ver_11.html ]
chorus: w/ light distortion
---------------------------------------
---------------------------------------
-5555555555555555----------------------
-5555555555555555-55555555-33333333----
-3333333333333333-55555555-33333333----
------------------33333333-11111111----

interlude- i am not sure if this is 100% but its damn close
-----------------------------------------------
-----------------------------------------------
-1010101010101010-10101010-9999-7777-xx7xx7----
-1010101010101010--x-x-x-x-xxxx-xxxx-xx7xx7----
--8-8-8-8-8-8-8-8--8-8-8-8-7777-5555-xx5xx5----
-----------------------------------------------
repeat again

solo: light distortion
p.m.............                    ... 
---------------------------------------
-----------------7-7-7-7---------------
---------5-5-5-5---------repeat then---
-5-5-5-5-----------------------------5-play this chord for
-------------------------------------3-how many times needed
---------------------------------------

outro
------------------------------------
------------------------------------
-5555555555555555------------------- play this strumming
-5555555555555555-55555555-33333333- up, down, up, down 
-3333333333333333-55555555-33333333-      strokes
------------------33333333-11111111-

then 
-----------------------
-----------------------
-55555555-------------- strumming goes back to 
-55555555-5555-xx3xx3--   just down strokes
-33333333-5555-xx3xx3--
----------3333-xx1xx1--
Comments