Blink 182 - All The Small Things Chords & Tabs

 

All The Small Things Chords & Tabs

Blink 182 Chords & Tabs

Version: 10 Type: Tab 0 ratings
1 star 2 stars 3 stars 4 stars 5 stars
comments

All The Small Things Tab

Hi this is the best version you will find trust me.

E-----------------------------------------------------------
B--------6--------------------------------------------------
G-5------5-x8-----------------------------------------------
D-5-x8---3-----5------5---------333-------------------------
A-3------------5-x8---5-0-0-0-0-333-------------------------
E--------------3------3---------111-------------------------
Play that line twice.
[ Tab from: http://www.guitartabs.cc/tabs/b/blink_182/all_the_small_things_tab_ver_10.html ]
Verses
All the small things......
E-----------------------------------------------------------
B-----------------------------------------------------------
G-----------------------------------------------------------
D-5---------------------------------------------------------
A-3-x8-----5-----3-----5------------------------------------
E----------3-x8--1-x8--3--x8--------------------------------
Play this for all the verses.

Chorus
Na na na....
Gtr2
-----8-------8----------------------------------------------
----------------+8------------------------------------------
--5------5--------------------------------------------------
------------------------------------------------------------
------------------------------------------------------------
------------------------------------------------------------
Gtr1
------------------------------------------------------------
------------------------------------------------------------
-5---------------------
-5--x16-5-------3------Then there is something like the intr
-3------5-x8----1--x8--o but higher i can't work it out.


--------3-------1------
Comments