Blink 182 - All The Small Things Chords & Tabs

 

All The Small Things Chords & Tabs

Blink 182 Chords & Tabs

Version: 1 Type: Tab 8 ratings
1 star 2 stars 3 stars 4 stars 5 stars
comments

All The Small Things Tab

Song: All the Small Things
Artist: Blink-182
Album: Enema of the State
Tabbed by: Patrick Lloyd (pats_01@hotmail.com)

Intro (x2):

e-----------------------------------------------------------|
B-----------------------------------------------------------|
G-------------------5--------10-----------------------------|
D---(5)-----(3)-----5 (x8)---10 (x8)---5--------3XXXXXX33---|
A---(5)-----(3)-----3---------8--------5 (x8)---3XXXXXX33---|
E---(3)-----(1)------------------------3--------1XXXXXX11---|

Verse (x4): (palm mute)

e-----------------------------------------------------------|    
B-----------------------------------------------------------|
G---5-------------------------------------------------------|
D---5 (x8)---5--------3--------5----------------------------|
A---3--------5 (x8)---3 (x8)---5 (x8)-----------------------|
E------------3--------1--------3----------------------------|

"Say it ain't so..."  (let ring)

e-----------------|
B-----------------|
G-----5-----------|
D-----5-----------|
A-----3-----------|
E-----------------|

Chorus (x2):
[ Tab from: http://www.guitartabs.cc/tabs/b/blink_182/all_the_small_things_tab.html ]
e----------------------------------------------------------|
B----------------------------------------------------------|
G---5------------------------------------------------------|
D---5 (x12)---5--------3-----------------------------------|
A---3---------5 (x8)---3 (x8)------------------------------|
E-------------3--------1-----------------------------------|

Repeat Intro all same as 1st time except change as follows:

e-----------------------|
B-----------------------|
G---10--------10--------|
D---10 (x4)---10 (x4)---|             (You'll hear what I'm
A---8----------7--------|              talking about.)
E-----------------------|

Repeat verse (x4)

Break @ 1:45 (palm mute):

e--------------|
B--------------|
G---5----------|
D-------5------|
A--------------|
E--------------|

Outro(x4):

e-------------------------------------------|
B-------------------------------------------|
G---5---------------------------------------|
D---5 (x12)------5-----------3--------------|
A---3------------5 (x8)------3 (x8)---------|
E----------------3-----------1--------------|
Comments