Blink 182 - All The Small Things Perfect Chords & Tabs

 

All The Small Things Perfect Chords & Tabs

Blink 182 Chords & Tabs

Version: 1 Type: Tab 5 ratings
1 star 2 stars 3 stars 4 stars 5 stars
comments

All The Small Things Perfect Tab

Inrto
1---------------------------------------------
2---------------------------------------------
3----------5----------------------------------
4---5------3-X8-------------------------------
5---3-X8--------5------5------------1-1-------
6---------------3--X9--3-X6-(Mute)--3-3-------

Chorus

1--------------------------------------
2--------------------------------------
3--------------------------------------
4---5----------------------------------
5---3-X8--5-----3-----5----------------
6---------3-X8--1-X8--3-X8------------- X6
[ Tab from: http://www.guitartabs.cc/tabs/b/blink_182/all_the_small_things_perfect_tab.html ]
Say it ain't so.......
1--------------------------------------
2--------------------------------------
3--------------------------------------
4---3----------------------------------
5---5-(HOLD)---------------------------
6--------------------------------------

Da, Na, Na.......
1--------------------------------------
2--------------------------------------
3--------------------------------------
4---3----------------------------------
5---5-X16--5-----3---------------------
6----------3-X8--1-X8------------------

Inrto 2
1-----------------------------------------------------
2-----------------------------------------------------
3----------5------4-----------------------------------
4---5------3-X4---2-X4--------------------------------
5---3-X8----------------5------5------------1-1-------
6-----------------------3--X9--3-X6-(Mute)--3-3-------
Comments