Blink 182 - All The Small Things Live Chords & Tabs

 

All The Small Things Live Chords & Tabs

Blink 182 Chords & Tabs

Version: 4 Type: Tab 0 ratings
1 star 2 stars 3 stars 4 stars 5 stars
comments

All The Small Things Live Tab

   
Ok im tired of the incorrect tabs here is the correct one
Tabbed by Art
Palm muted (*)

e|------|
B|------|
G|------|
D|-5-3--|
A|-5-3--|
E|-3-1--|

e|---------------------------------------------|
B|---------------------------------------------|
G|-5555555-101010101010------------------------| 2x
D|-5555555-101010101010--555555555-xxxx-3-3----|
A|-3333333-8-8-8-8-8-8---555555555-xxxx-3-3----|
E|-----------------------333333333-xxxx-1-1----|
                                   ****
Verse
e|----------------------------------|
B|----------------------------------|
G|-5555555--------------------------|   4x
D|-5555555-5555555-3333333-5555555--|
A|-3333333-5555555-3333333-5555555--|
E|---------3333333-1111111-3333333--|
   ******* ******* ******* *******
After the 4th time:
e|---|
B|---|
G|-5-|      Let ring
D|-5-|
A|-3-|
E|---|

Chorus
e|----------------------------------|
B|----------------------------------|
G|-55555555555555-------------------|
D|-55555555555555-5555555-3333333---|
A|-33333333333333-5555555-3333333---|
E|----------------3333333-1111111---|
[ Tab from: http://www.guitartabs.cc/tabs/b/blink_182/all_the_small_things_live_tab_ver_4.html ]
Then
e|-------------------------------------------|
B|-------------------------------------------|
G|-5555555-10101010-77777-7777777------------|
D|-5555555-8-8-8-8--77777-7777777---xxxx-3-3-| 2x
A|-3333333-8-8-8-8--99999-5555555---xxxx-3-3-|
E|----------------------------------xxxx-1-1-|
                                    ****
Bridge
e|-----------------------------|
B|-----------------------------|
G|--5--5--5--5--4--4--7--7-----|
D|----5--5--5--5--5--5--5--5---|
A|-----------------------------|
E|-----------------------------|
    * * * * * * * * *

Outro
e|----------------------------------|
B|----------------------------------|
G|-55555555555555-------------------|
D|-55555555555555-5555555-xx3xx3----|
A|-33333333333333-5555555-xx3xx3----|
E|----------------3333333-xx1xx1----|

e|---------------------------------------|
B|---------------------------------------|
G|-55555555555555------------------------|
D|-55555555555555-5555555-xx3xx3xx3xx3---|
A|-33333333333333-5555555-xx3xx3xx3xx3---|
E|----------------3333333-xx1xx1xx1xx1---|

end on
e|---|
B|---|
G|-5-|
D|-5-|
A|-3-|
E|---|

**ORDER**
INTRO
VERSE
PICK SLIDE
CHORUS
MIDDLE THING
VERSE
PICK SLIDE
CHORUS
BRIDGE
CHORUS
OUTRO
Comments