Blink 182 - All The Small Things Live Chords & Tabs

 

All The Small Things Live Chords & Tabs

Blink 182 Chords & Tabs

Version: 2 Type: Tab 0 ratings
1 star 2 stars 3 stars 4 stars 5 stars
comments

All The Small Things Live Tab

Blink-182 (the right way to spell it) 
Title- All the small things(live)

this is exacly the way the they play it concert. put this way it is 100% correct

intro:  2x  *=8x
1)-------------------------
2)-----------6*------------
3)-------5*--5*----pmpmpmpm
4)--5-3--5*--5*-5*--3-3-3-3
5)--5-3--3*--3*-5*--3-3-3-3
6)--3-1---------3*--1-1-1-1

Verse:(to end of the verse) *=8x (palm mute)
1)-----------
2)-----------
3)--5*-------
4)--5*-5*-3*-
5)--3*-5*-3*-
6)-----3*-1*-

Chorus   ()= let ring > = pick drag
1)--------------------------------------------------------
2)--------------------------------------------------------
3)--(5)---------------------------------------------------
4)--(5)---------------------------------------------------
5)--(5)---------------------------------------------------
6)--------------------------------------------->>>>>>>>>>>
say it aint so i will not go turn the lights out carry me home

Na NA part
1)-------------
2)-------------
3)--5*---------
4)--5*-5*-3*-5*
5)--3*-5*-3*-5*
6)-----3*-1*-3*
[ Tab from: http://www.guitartabs.cc/tabs/b/blink_182/all_the_small_things_live_tab_ver_2.html ]
then this: 2X
1)---------------------
2)-------------pmpmpmpm
3)--5*-10*-9*--7-7-7-7
4)--5*-10*-9*--7-7-7-7
5)--3*--8*-7*--5-5-5-5- 
6)---------------------


Verse: 2x *=8x (palm mute)
1)-----------
2)-----------
3)--5*-------
4)--5*-5*-3*-
5)--3*-5*-3*-
6)-----3*-1*-

Chorus   ()= let ring > = pick drag
1)----------------------------------------------------------
2)----------------------------------------------------------
3)--(5)-----------------------------------------------------
4)--(5)-----------------------------------------------------
5)--(5)-----------------------------------------------------
6)--------------------------------------------->>>>>>>>>>>>>
say it aint so i will not go turn the lights out carry me home

Na NA part
1)-------------
2)-------------
3)--5*---------
4)--5*-5*-3*-5*
5)--3*-5*-3*-5*
6)-----3*-1*-3*

Solo
palm mute
1)-------------------------------------
2)-------------------------------------
3)--(5)--------5-5-5-5-4-4-4-4(play 4X)
4)--(5)---------5-5-5-5-5-5-5----------
5)--(3)--------------------------------
6)-------------------------------------

Outro (to the end)
1)-------------
2)-------------
3)--5*---------
4)--5*-5*--3*--
5)--3*-5*--3*--
6)-----3*--1*--


This was tabbed by Chris Spinelli 
this what i play and Blink-182 plays this song and if dont like i dont care


Comments