Blink 182 - All The Small Things Live Chords & Tabs

 

All The Small Things Live Chords & Tabs

Blink 182 Chords & Tabs

Version: 10 Type: Tab 0 ratings
1 star 2 stars 3 stars 4 stars 5 stars
comments

All The Small Things Live Tab

   
This is the version off the Mark, Tom and Travis show

Normal Tuning: EADGBe

Intro

e|-----|
B|-----|
G|-----|
D|-5-3-|
A|-5-3-|
E|-3-1-|

e|---------------------------------------------------------------|
B|-----------------6-6-6-6-6-6-6-6-------------------------------|
G|-5-5-5-5-5-5-5-5-5-5-5-5-5-5-5-5-------------------------------|
D|-5-5-5-5-5-5-5-5-5-5-5-5-5-5-5-5-5-5-5-5-5-5-5-5-5-5-5-5-5-3-3-|
A|-3-3-3-3-3-3-3-3-3-3-3-3-3-3-3-3-5-5-5-5-5-5-5-5-5-5-5-5-5-3-3-|
E|---------------------------------3-3-3-3-3-3-3-3-3-3-3-3-3-1-1-|
                                                     * * *

e|---------------------------------------------------------------|
B|-----------------6-6-6-6-6-6-6-6-------------------------------|
G|-5-5-5-5-5-5-5-5-5-5-5-5-5-5-5-5-------------------------------|
D|-5-5-5-5-5-5-5-5-5-5-5-5-5-5-5-5-5-5-5-5-5-5-5-5-5-5-5-5-5-3-3-|
A|-3-3-3-3-3-3-3-3-3-3-3-3-3-3-3-3-5-5-5-5-5-5-5-5-5-5-5-5-5-3-3-|
E|---------------------------------3-3-3-3-3-3-3-3-3-3-3-3-3-1-1-|
                                                     * * *

Verse 1

e|-----------------------------------------------------------------|
B|-----------------------------------------------------------------|
G|-5-5-5-5-5-5-5-5-------------------------------------------------|
D|-5-5-5-5-5-5-5-5-5-5-5-5-5-5-5-5-3-3-3-3-3-3-3-3-5-5-5-5-5-5-5-5-|
A|-3-3-3-3-3-3-3-3-5-5-5-5-5-5-5-5-3-3-3-3-3-3-3-3-5-5-5-5-5-5-5-5-|
E|-----------------3-3-3-3-3-3-3-3-1-1-1-1-1-1-1-1-3-3-3-3-3-3-3-3-|
   * * * * * * * * * * * * * * * * * * * * * * * * * * * * * * * *

e|-----------------------------------------------------------------|
B|-----------------------------------------------------------------|
G|-5-5-5-5-5-5-5-5-------------------------------------------------|
D|-5-5-5-5-5-5-5-5-5-5-5-5-5-5-5-5-3-3-3-3-3-3-3-3-5-5-5-5-5-5-5-5-|
A|-3-3-3-3-3-3-3-3-5-5-5-5-5-5-5-5-3-3-3-3-3-3-3-3-5-5-5-5-5-5-5-5-|
E|-----------------3-3-3-3-3-3-3-3-1-1-1-1-1-1-1-1-3-3-3-3-3-3-3-3-|
   * * * * * * * * * * * * * * * * * * * * * * * * * * * * * * * *

e|-----------------------------------------------------------------|
B|-----------------------------------------------------------------|
G|-5-5-5-5-5-5-5-5-------------------------------------------------|
D|-5-5-5-5-5-5-5-5-5-5-5-5-5-5-5-5-3-3-3-3-3-3-3-3-5-5-5-5-5-5-5-5-|
A|-3-3-3-3-3-3-3-3-5-5-5-5-5-5-5-5-3-3-3-3-3-3-3-3-5-5-5-5-5-5-5-5-|
E|-----------------3-3-3-3-3-3-3-3-1-1-1-1-1-1-1-1-3-3-3-3-3-3-3-3-|
   * * * * * * * * * * * * * * * * * * * * * * * * * * * * * * * *

e|-----------------------------------------------------------------|
B|-----------------------------------------------------------------|
G|-5-5-5-5-5-5-5-5-------------------------------------------------|
D|-5-5-5-5-5-5-5-5-5-5-5-5-5-5-5-5-3-3-3-3-3-3-3-3-5-5-5-5-5-5-5-5-|
A|-3-3-3-3-3-3-3-3-5-5-5-5-5-5-5-5-3-3-3-3-3-3-3-3-5-5-5-5-5-5-5-5-|
E|-----------------3-3-3-3-3-3-3-3-1-1-1-1-1-1-1-1-3-3-3-3-3-3-3-3-|
   * * * * * * * * * * * * * * * * * * * * * * * * * * * * * * * *

Pre chorus

e--------|
B--------|
G-5~~~~~-|
D-5~~~~~-|
A-3~~~~~-|
E--------|

Chorus

e|-------------------------------------|
B|-------------------------------------|
G|-5555555555555555--------------------|
D|-5555555555555555-55555555--33333333-|
A|-3333333333333333-55555555--33333333-|
E|------------------33333333--11111111-|

e|-------------------------------------|
B|-------------------------------------|
G|-5555555555555555--------------------|
D|-5555555555555555-55555555--33333333-|
A|-3333333333333333-55555555--33333333-|
E|------------------33333333--11111111-|

Solo part

e|-----------------------------------------------------------------|
B|-----------------------------------------------------------------|
G|-5-5-5-5-5-5-5-5-10-10-10-10-9-9-9-9-----------------------------|
D|-5-5-5-5-5-5-5-5-10-10-10-10-9-9-9-9-5-5-5-5-5-5-5-5-5-5-5-5-3-3-|
A|-3-3-3-3-3-3-3-3-8--8--8--8--7-7-7-7-5-5-5-5-5-5-5-5-5-5-5-5-3-3-|
E|-------------------------------------3-3-3-3-3-3-3-3-3-3-3-3-1-1-|
                                                       * * *
[ Tab from: http://www.guitartabs.cc/tabs/b/blink_182/all_the_small_things_live_tab_ver_10.html ]
e|-----------------------------------------------------------------|
B|-----------------------------------------------------------------|
G|-5-5-5-5-5-5-5-5-10-10-10-10-9-9-9-9-----------------------------|
D|-5-5-5-5-5-5-5-5-10-10-10-10-9-9-9-9-5-5-5-5-5-5-5-5-5-5-5-5-3-3-|
A|-3-3-3-3-3-3-3-3-8--8--8--8--7-7-7-7-5-5-5-5-5-5-5-5-5-5-5-5-3-3-|
E|-------------------------------------3-3-3-3-3-3-3-3-3-3-3-3-1-1-|
                                                       * * *
Verse 2

e|-----------------------------------------------------------------|
B|-----------------------------------------------------------------|
G|-5-5-5-5-5-5-5-5-------------------------------------------------|
D|-5-5-5-5-5-5-5-5-5-5-5-5-5-5-5-5-3-3-3-3-3-3-3-3-5-5-5-5-5-5-5-5-|
A|-3-3-3-3-3-3-3-3-5-5-5-5-5-5-5-5-3-3-3-3-3-3-3-3-5-5-5-5-5-5-5-5-|
E|-----------------3-3-3-3-3-3-3-3-1-1-1-1-1-1-1-1-3-3-3-3-3-3-3-3-|
   * * * * * * * * * * * * * * * * * * * * * * * * * * * * * * * *

e|-----------------------------------------------------------------|
B|-----------------------------------------------------------------|
G|-5-5-5-5-5-5-5-5-------------------------------------------------|
D|-5-5-5-5-5-5-5-5-5-5-5-5-5-5-5-5-3-3-3-3-3-3-3-3-5-5-5-5-5-5-5-5-|
A|-3-3-3-3-3-3-3-3-5-5-5-5-5-5-5-5-3-3-3-3-3-3-3-3-5-5-5-5-5-5-5-5-|
E|-----------------3-3-3-3-3-3-3-3-1-1-1-1-1-1-1-1-3-3-3-3-3-3-3-3-|
   * * * * * * * * * * * * * * * * * * * * * * * * * * * * * * * *

Pre chorus

e|--------|
B|--------|
G|-5~~~~~-|
D|-5~~~~~-|
A|-3~~~~~-|
E|--------|

Chorus

e|------------------------------------|
B|------------------------------------|
G|-5555555555555555-------------------|
D|-5555555555555555-55555555-33333333-|
A|-3333333333333333-55555555-33333333-|
E|------------------33333333-11111111-|

e|---------------------------------------------|
B|--------------------------------------------|
G|-5555555555555555--------------------5~~~~~~|
D|-5555555555555555-55555555-33333333--5~~~~~~|
A|-3333333333333333-55555555-33333333--3~~~~~~|
E|------------------33333333-11111111---------|

Breakdown

e|--------------------|
B|----------3-3--0-0--|
G|-5-5-5-5------------|
D|--5-5-5-5--5-5--5-5-|
A|--------------------|
E|--------------------|
   ******** **** ****

e|--------------------|
B|----------3-3--0-0--|
G|-5-5-5-5------------|
D|--5-5-5-5--5-5--5-5-|
A|--------------------|
E|--------------------|
   ******** **** ****

e|--------------------|
B|----------3-3--0-0--|
G|-5-5-5-5------------|
D|--5-5-5-5--5-5--5-5-|
A|--------------------|
E|--------------------|
   ******** **** ****

e|--------------------|
B|----------3-3--0-0--|
G|-5-5-5-5------------|
D|--5-5-5-5--5-5--5-5-|
A|--------------------|
E|--------------------|
   ******** **** ****

e|--------------------|
B|----------3-3--0-0--|
G|-5-5-5-5------------|
D|--5-5-5-5--5-5--5-5-|
A|--------------------|
E|--------------------|
   ******** **** ****

Chorus

e|-------------------------------------|
B|-------------------------------------|
G|-5555555555555555--------------------|
D|-5555555555555555-55555555--33333333-|
A|-3333333333333333-55555555--33333333-|
E|------------------33333333--11111111-|

e|-------------------------------------|
B|-------------------------------------|
G|-5555555555555555--------------------|
D|-5555555555555555-55555555--33333333-|
A|-3333333333333333-55555555--33333333-|
E|------------------33333333--11111111-|

e|-----------------------------------------------|
B|-----------------------------------------------|
G|-5555555555555555------------------------------|
D|-5555555555555555-55555555-55-3-33-3-33-3-33-3-|
A|-3333333333333333-55555555-55-3-33-3-33-3-33-3-|
E|------------------33333333-33-1-11-1-11-1-11-1-|
                             **   **   **   **
e|------------------------------------------------|
B|------------------------------------------------|
G|-5555555555555555-------------------------------|
D|-5555555555555555-55555555-55-3-33-3-33-3-33-33-|
A|-3333333333333333-55555555-55-3-33-3-33-3-33-33-|
E|------------------33333333-33-1-11-1-11-1-11-11-|
                             **   **   **   **

End on 

e|---------|
B|---------|
G|-5~~~~~~-|
D|-5~~~~~~-|
A|-3~~~~~~-|
E|---------|

 * Palm mute
 ~ Let ring
Comments