Blink 182 - All The Small Things Chords & Tabs

 

All The Small Things Chords & Tabs

Blink 182 Chords & Tabs

Version: 2 Type: Bass Tab 7 ratings
1 star 2 stars 3 stars 4 stars 5 stars
comments

All The Small Things Bass Tab

Artist: Blink 182
Title: All the small things
Album: Enema of the state
Tabbed by Barry C     18/07/2005

This is arguably one of the best songs ever written, it gets everyone going and
is known by everyone! its easy 2.good luck. 100% accurate
Blink 182 will be back!!!

Intro 
G:|----------------------|-----------------|-----------------|-----------------|
D:|----------------------|-----------------|-----------------|-----------------|
A:|------3-3-3-3-3-3-3-3-|-8-8-8-8-8-8-8-8-|-----------------|-----------------|
E:|-3-1------------------|-----------------|-3-3-3-3-3-3-3-3-|-x-x-x-x-x-1-1-1-|

G:|-----------------|-----------------|-----------------|-----------------|
D:|-----------------|-----------------|-----------------|-----------------|
A:|-3-3-3-3-3-3-3-3-|-8-8-8-8-8-8-8-8-|-----------------|-----------------|
E:|-----------------|-----------------|-3-3-3-3-3-3-3-3-|-x-x-x-x-x-1-1-1-|
Verse 
G:|-----------------|-----------------|-----------------|-----------------|
D:|-----------------|-----------------|-----------------|-----------------|
A:|-3-3-3-3-3-3-3-3-|-----------------|-----------------|-----------------|
E:|-----------------|-3-3-3-3-3-3-3-3-|-1-1-1-1-1-1-1-1-|-3-3-3-3-3-3-3-3-|

G:|-----------------|-----------------|-----------------|-----------------|
D:|-----------------|-----------------|-----------------|-----------------|
A:|-3-3-3-3-3-3-3-3-|-----------------|-----------------|-----------------|
E:|-----------------|-3-3-3-3-3-3-3-3-|-1-1-1-1-1-1-1-1-|-3-3-3-3-3-3-3-3-|

G:|-----------------|-----------------|-----------------|-----------------|
D:|-----------------|-----------------|-----------------|-----------------|
A:|-3-3-3-3-3-3-3-3-|-----------------|-----------------|-----------------|
E:|-----------------|-3-3-3-3-3-3-3-3-|-1-1-1-1-1-1-1-1-|-3-3-3-3-3-3-3-3-|

G:|-----------------|-----------------|-----------------|-----------------|
D:|-----------------|-----------------|-----------------|-----------------|
A:|-3-3-3-3-3-3-3-3-|-----------------|-----------------|-----------------|
E:|-----------------|-3-3-3-3-3-3-3-3-|-1-1-1-1-1-1-1-1-|-3-3-3-3-3-3-3-3-|
Pre-chorus (say it aint so…)
G:|-----------------|-----------------|-----------------|-----------------|
D:|-----------------|-----------------|-----------------|-----------------|
A:|-3-3-3-3-3-3-3-3-|-3-3-3-3-3-3-3-3-|-----------------|-----------------|
E:|-----------------|-----------------|-3-3-3-3-3-3-3-3-|-1-1-1-1-1-1-1-1-|
Chorus (na na na na……)
G:|-----------------|-----------------|-----------------|-----------------|
D:|-----------------|-----------------|-----------------|-----------------|
A:|-3-3-3-3-3-3-3-3-|-3-3-3-3-3-3-3-3-|-----------------|-----------------|
E:|-----------------|-----------------|-3-3-3-3-3-3-3-3-|-1-1-1-1-1-1-1-1-|
(na na na na……)
G:|-----------------|-----------------|-----------------|-----------------|
D:|-----------------|-----------------|-----------------|-----------------|
A:|-3-3-3-3-3-3-3-3-|-3-3-3-3-3-3-3-3-|-----------------|-----------------|
E:|-----------------|-----------------|-3-3-3-3-3-3-3-3-|-1-1-1-1-1-1-1-1-|
Intro 2
G:|-----------------|-----------------|-----------------|-----------------|
D:|-----------------|-----------------|-----------------|-----------------|
A:|-3-3-3-3-3-3-3-3-|-8-8-8-8-6-6-8-8-|-----------------|-----------------|
E:|-----------------|-----------------|-3-3-3-3-3-3-3-3-|-x-x-x-x-x-1-1-1-|
[ Tab from: http://www.guitartabs.cc/tabs/b/blink_182/all_the_small_things_btab_ver_2.html ]
G:|-----------------|-----------------|-----------------|-----------------|
D:|-----------------|-----------------|-----------------|-----------------|
A:|-3-3-3-3-3-3-3-3-|-8-8-8-8-6-6-8-8-|-----------------|-----------------|
E:|-----------------|-----------------|-3-3-3-3-3-3-3-3-|-x-x-x-x-x-1-1-1-|



Verse
G:|-----------------|-----------------|-----------------|-----------------|
D:|-----------------|-----------------|-----------------|-----------------|
A:|-3-3-3-3-3-3-3-3-|-----------------|-----------------|-----------------|
E:|-----------------|-3-3-3-3-3-3-3-3-|-1-1-1-1-1-1-1-1-|-3-3-3-3-3-3-3-3-|

G:|-----------------|-----------------|-----------------|-----------------|
D:|-----------------|-----------------|-----------------|-----------------|
A:|-3-3-3-3-3-3-3-3-|-----------------|-----------------|-----------------|
E:|-----------------|-3-3-3-3-3-3-3-3-|-1-1-1-1-1-1-1-1-|-3-3-3-3-3-3-3-3-|
Pre-Chorus (say it aint so…)
G:|-----------------|-----------------|-----------------|-----------------|
D:|-----------------|-----------------|-----------------|-----------------|
A:|-3-3-3-3-3-3-3-3-|-3-3-3-3-3-3-3-3-|-----------------|-----------------|
E:|-----------------|-----------------|-3-3-3-3-3-3-3-3-|-1-1-1-1-1-1-1-1-|
Chorus (na na na na……)
G:|-----------------|-----------------|-----------------|-----------------|
D:|-----------------|-----------------|-----------------|-----------------|
A:|-3-3-3-3-3-3-3-3-|-3-3-3-3-3-3-3-3-|-----------------|-----------------|
E:|-----------------|-----------------|-3-3-3-3-3-3-3-3-|-1-1-1-1-1-1-1-1-|
(na na na na……)
G:|-----------------|-----------------|-----------------|-----------------|
D:|-----------------|-----------------|-----------------|-----------------|
A:|-3-3-3-3-3-3-3-3-|-3-3-3-3-3-3-3-3-|-----------------|-----------------|
E:|-----------------|-----------------|-3-3-3-3-3-3-3-3-|-1-1-1-1-1-1-1-1-|
Interlude 
G:|-------------------|-------------------|-------------------|
D:|-------------------|-------------------|-------------------|
A:|-3-------8---10----|-3-------8---10----|-3-------8---10----|
E:|-------------------|-------------------|-------------------|

G:|-----------------|-----------------|-----------------|-------------------------|
D:|-----------------|-----------------|-----------------|-------------------------|
A:|-3-3-3-3-3-3-3-3-|-3-3-3-3-3-3-3-3-|-8-8-8-8-8-8-8-8-|-10-10-10-10-10-10-10-10-|
E:|-----------------|-----------------|-----------------|-------------------------|
Ending 
G:|-----------------|-----------------|-----------------|-----------------|
D:|-----------------|-----------------|-----------------|-----------------|
A:|-3-3-3-3-3-3-3-3-|-3-3-3-3-3-3-3-3-|-----------------|-----------------|
E:|-----------------|-----------------|-3-3-3-3-3-3-3-3-|-1-1-1-1-1-1-1-1-|

G:|-----------------|-----------------|-----------------|-----------------|
D:|-----------------|-----------------|-----------------|-----------------|
A:|-3-3-3-3-3-3-3-3-|-3-3-3-3-3-3-3-3-|-----------------|-----------------|
E:|-----------------|-----------------|-3-3-3-3-3-3-3-3-|-1-1-1-1-1-1-1-1-|
				
G:|-----------------|-----------------|-----------------|-----------------|
D:|-----------------|-----------------|-----------------|-----------------|
A:|-3-3-3-3-3-3-3-3-|-3-3-3-3-3-3-3-3-|-----------------|-----------------|
E:|-----------------|-----------------|-3-3-3-3-3-3-3-3-|-x-x-1---x-x-1---|

G:|----------------|---------------|---------------|---------------|----------------|
D:|----------------|---------------|---------------|---------------|----------------|
A:|-3-3-3-3-3-3-3-3|3-3-3-3-3-3-3-3|---------------|---------------|---------------3|
E:|----------------|---------------|3-3-3-3-3-3-3-3|x-x-1---x-x-1--|x-x-1---x-x-1---|
Comments