Blink 182 - All Of This Chords & Tabs

 

All Of This Chords & Tabs

Blink 182 Chords & Tabs

Version: 7 Type: Tab 0 ratings
1 star 2 stars 3 stars 4 stars 5 stars
comments

All Of This Tab

All Of this
Standered Tuning
If you take a close look at this song, its looks
kinda like easy target, but hey, thats just me. Fairly
easy song, i think like 3 guitars, but there is only
one part where they are all playing, otherwise
its only one. Oh, and by the way, you might notice
that tom switches between an acoustic and a clean
elertic guitar, but thats for you to figure out.

Intro

Guitar 1

e|--------------------------------------------|
B|--------------------------------------------|
G|--------------------------------------------|
D|-4/6/7/9/7--7/9/11--11/12/9--9/-4/6/7/9/7--7| 2x
A|-0-0-0-0-0--0-0--0---0--0-0--0--0-0-0-0-0--0|
E|-2/4/5/7/5--5/7/-9---9/10/7--7/-2/4/5/7/5--5|

Verse

Guitar 1

e|------------------------------------------------|
B|------------------------------------------------|
G|------------------------------------------------|
D|-11-11-11-11-11-11-11-11-11-9-9-9-11-11-11-7----| 4x
A|--0--0--0--0--0--0--0--0--0-0-0-0--0--0--0-0----|
E|--9--9--9--9--9--9--9--9--9-7-7-7--9--9--9-5----|

Chours 

Guitar 1
[ Tab from: http://www.guitartabs.cc/tabs/b/blink_182/all_of_this_tab_ver_7.html ]
e|-------------------------------------------------------|
B|-------------------------------------------------------|
G|-------------------------------------------------------|
D|--4-4-4-4-4-4-4-4-4-4-2-2-2-2-7-7-7-7-7-7-7-7-7-9-9-9--| 2x
A|--0-0-0-0-0-0-0-0-0-0-0-0-0-0-0-0-0-0-0-0-0-0-0-0-0-0--|
E|--2-2-2-2-2-2-2-2-2-2-0-0-0-0-5-5-5-5-5-5-5-5-5-7-7-7--|

Then the Intro, then wait for 8 measures, the play
the verse riff twice, then bust out the chours riff twice
Then the bridge, (along with the intro 4 times)
which is as follows:


e|-----------------------------|
B|-----------------------------|
G|-----------------------------|
D|---7--7--7--7--7--7--7--7----| 4x
A|---0--0--0--0--0--0--0--0----|
E|---5--5--5--5--5--5--5--5----|


Now the interlude, with like 2 guitars

Guitar 1

e|--------------------------------------------------------------|
B|--------------------------------------------------------------|
G|--2------2-----2---1--1------2------2-------2------4--4-------| 4x
D|-------------------2--2----------------------------2--2-------|
A|--------------------------------------------------------------|
E|--------------------------------------------------------------|


Guitar 2

e|----------------------------------------------------------|
B|----------------------------------------------------------|
G|----------------------------------------------------------| 4x
D|----------------------------------------------------------|
A|----------------------------------------------------------|
E|---2-2-2-2-2-2-2-2-2/4-4-4-4-5-5-5-5-5-5-5-5-5-/7-7-7-0---|

Play the chours, the intro, and i think thats it
if i messed up the order, you should be smart enough
to figure it out, it is blink 182.
Comments