Blink 182 - All Of This Chords & Tabs

 

All Of This Chords & Tabs

Blink 182 Chords & Tabs

Version: 6 Type: Tab 0 ratings
1 star 2 stars 3 stars 4 stars 5 stars
comments

All Of This Tab

Artist: Blink 182
Song Title: All Of This
Album: Blink 182
Tuning: Standard

Intro
e------------------------------------------------
B------------------------------------------------
G------------------------------------------------
D--4/6/7/9\7--7/9/11--11/12\9-9\4--4/6/7/9\5--7--
A--0----------0-------0-------0----0----------0--
E--2/4/5/7\5--5/7/9---9-/10\7-7\2--2/4/5/7\5--5--

Verse
e--------------------------------------------------------------------
B--------------------------------------------------------------------
G--------------------------------------------------------------------
D--11-11-11-11-11-11-11-11-11-11-11-11-11-11-11-11-9-9-9-11-11-11-7--
A--0--0--0--0--0--0--0--0--0--0--0--0--0--0--0--0--0-0-0-0--0--0--0--
E--9--9--9--9--9--9--9--9--9--9--9--9--9--9--9--9--7-7-7-9--9--9--5--
[ Tab from: http://www.guitartabs.cc/tabs/b/blink_182/all_of_this_tab_ver_6.html ]
Chorus
e-------------------------------------------------------------------
B-------------------------------------------------------------------
G-------------------------------------------------------------------
D--4-4-4-4-4-4-4-4-4-4-4-4-6-6-6-6-7-7-7-7-7-7-7-7-7-7-7-7-7-9-9-9--
A--0-0-0-0-0-0-0-0-0-0-0-0-0-0-0-0-0-0-0-0-0-0-0-0-0-0-0-0-0-0-0-0--
E--2-2-2-2-2-2-2-2-2-2-2-2-4-4-4-4-5-5-5-5-5-5-5-5-5-5-5-5-5-7-7-7--

Interlude
Guitar 1
e----------------------------------------------------------
B-----------0-0-------------------------0-0-----------0-0--
G--2--2--2--1-1--2--2--2--2-2--2--2--2--1-1--2--2--2--4-4--
D----------------------------------------------------------
A----------------------------------------------------------
E----------------------------------------------------------

Guitar 2 (This part's really hard to hear, I'm not sure if this is single
notes or octaves, listen to it and decide which you think sounds more right)
e-------------------------------------------------------------------
B-------------------------------------------------------------------
G-------------------------------------------------------------------
D-------------------------------------------------------------------
A-------------------------------------------------------------------
E--2-2-2-2-2-2-2-2-2-2-2-2-4-4-4-4-5-5-5-5-5-5-5-5-5-5-5-5-5-7-7-7--
Comments