Blink 182 - All Of This Chords & Tabs

 

All Of This Chords & Tabs

Blink 182 Chords & Tabs

Version: 5 Type: Tab 0 ratings
1 star 2 stars 3 stars 4 stars 5 stars
comments

All Of This Tab

   
Song: All of This
Band: Blink 182
Album: [no title]
Tabber: __blinkloser182

No one tabbed this song right so i decided to give it my shot.
Please Rate

Standard Tuning

Intro
e|---------------------------------------
B|---------------------------------------
G|--------------------------------------- x2
D|--4/6/7/9\7-7/9/11-11/12\9-9-4/6/7/9\7-
A|--x/x/x/x\x-x/x/x---x/x \x-x-x/x/x/x\x-
E|--2/4/5/7\5-5/7/9---9/10\7-7-2/4/5/7\5-

Verse
e|-------------------------
B|-------------------------
G|------------4444-66-7----  x4
D|-4444444444-xxxx-xx-x----
A|-xxxxxxxxxx-2222-44-5----
E|-2222222222--------------
[ Tab from: http://www.guitartabs.cc/tabs/b/blink_182/all_of_this_tab_ver_5.html ]
Chorus
e|-------------------------------
B|-------------------------------
G|-------------------------------  x2
D|-444444444444-22222-77777777777
A|-xxxxxxxxxxxx-xxxxx-xxxxxxxxxxx
E|-222222222222-00000-55555555555

Different Thing
e|------------------------------------
B|------------------------------------
G|------------------------------------
D|---7---7---7----66---7----7----7---7
A|------------------------------------
E|-55---55---55--4---55---55---55---9-

Somethin Else
e|------------------------------------
B|------------------------------------
G|-666666666666-44444-66666-----------
D|-xxxxxxxxxxxx-xxxxx-xxxxx-7---------
A|-444444444444-22222-44444-x---------
E|--------------------------5---------

Song Order:
Intro - 2x
Verse - 4x
Chorus - 2x
Intro - 2x
Verse - 4x
Chorus - 2x
Intro - 2x
Different Thing - 4x
Chorus - 2x
Intro - 2x
Somethin Else - 2x
Verse - 4x
Comments