Blink 182 - All Of This Chords & Tabs

 

All Of This Chords & Tabs

Blink 182 Chords & Tabs

Version: 3 Type: Tab 0 ratings
1 star 2 stars 3 stars 4 stars 5 stars
comments

All Of This Tab

Tabbed by Colin Baillio

This is 100% correct!

All of This
~=Hold

Intro
1--------------------------------------------------
2--------------------------------------------------
3--------------------------------------------------
4--------------------------------------------------
5-----0-2-0--0-2-4-4-5-2-2-4------0-2-0--7~--------
6-2-4-------------------------2-4--------5~-------- X2 

Verse
1-------------------------------------------------------
2-------------------------------------------------------
3--6---------4-4-4------6-6-6---------------------------
4--6---------4-4-4------6-6-6--7~-----------------------
5--4-X16-----2-2-2------4-4-4--7~-----------------------
6------------------------------5~----------------------- X4 
[ Tab from: http://www.guitartabs.cc/tabs/b/blink_182/all_of_this_tab_ver_3.html ]
Chorus
1-------------------------------------------------------
2-------------------------------------------------------
3---6-6-6-6-----4-4-4-6-6-6-----------------------------
4---6-6-6-6-----4-4-4-6-6-6-7~--------------------------
5---4-4-4-4-X2--2-2-2-4-4-4-7~--------------------------
6---------------------------5~-------------------------- X2

Bridge
1--------------------------------------------------
2--------------------------------------------------
3--------------------------------------------------
4--------------------------------------------------
5-----0-2-0--0-2-4-4-5-2-2-4------0-2-0--7~--------
6-2-4-------------------------2-4--------5~-------- X2 

End
1----------------------------------------------------
2----------------------------------------------------
3---2-2-2------2-2-2------2-2-2------2-2-2-----------
4---------2-2---------2-2--------2-2-------2-2-------
5----------------------------------------------------
6----------------------------------------------------
Intro
Verse
Chorus
Intro
Verse 
Chorus
Bridge
End
Chorus
Bridge
Intro
Comments