Blink 182 - Aliens Exist Chords & Tabs

 

Aliens Exist Chords & Tabs

Blink 182 Chords & Tabs

Version: 12 Type: Tab 0 ratings
1 star 2 stars 3 stars 4 stars 5 stars
comments

Aliens Exist Tab

   
-------------------------------------------------------------------------------
			     Aliens Exist - Blink 182
-------------------------------------------------------------------------------
Tabbed by: Dave
Email: GCNFGracer182@aol.com

Tuning: Standard

| / = slide up
| \ = slide down
| h = hammer-on
| p = pull-off
| ~ = let note ring
| + = harmonic
| x = Mute note

Okay, I saw a bunch of tabs on here that were slighty wrong for this song. I have
the book for Enema of The State as well as Take Off Your Pants and Jacket, if
anybody wants a tab from me I can take it right out of those books like I did
with this and Don't Leave Me Version 10

Intro
e|---------------------------------------------------------------------------|
B|---------------------------------------------------------------------------|
G|---------------------------------------------------------------------------|
D|---------------------------------------------------------------------------|
A|-2-2-2-2-2-2-2-2-2-2-2-2-2-1-1-1-2~~~~~~~----------------------------------|
E|---------------------------------------------------------------------------|
   x x x x x x x x x x x x x x x x

Main Riff
e|---------------------------------------------------------------------------|
B|---------------------------------------------------------------------------|
G|-4-4-4-4-4-4---------------------------------------------------------------|
D|-4-4-4-4-4-4--2-2-2-2-2-2--6-6-6-6-6-6--2-2-2-2-2-2------------------------|
A|-2-2-2-2-2-2--2-2-2-2-2-2--6-6-6-6-6-6--2-2-2-2-2-2------------------------|
E|--------------0-0-0-0-0-0--4-4-4-4-4-4--0-0-0-0-0-0------------------------|

Verse
e|---------------------------------------------------------------------------|
B|---------------------------------------------------------------------------|
G|-4-------------------------------------------------------------------------|
D|-4-------------------------------------------------------------------------|
A|-2--2-2-2-2-2-0------------------------------------------------------------|
E|-----------------2-2-2-2-2-2-2-2--4-4-4-4-4-4-4-4--0-0-0-0-0-0-0-0---------|
      x x x x x x  x x x x x x x x  x x x x x x x x  x x x x x x x x

e|---------------------------------------------------------------------------|
B|---------------------------------------------------------------------------|
G|---------------------------------------------------------------------------|
D|---------------------------------------------------------------------------|
A|-2-2-2-2-2-2-2-0-----------------------------------------------------------|
E|------------------2-2-2-2-2-2-2-2--4-4-4-4-4-4-4-4--0-0-0-0-0-0-0-0--------|
   x x x x x x x x  x x x x x x x x  x x x x x x x x  x x x x x x x x

e|---------------------------------------------------------------------------|
B|---------------------------------------------------------------------------|
G|---------------------------------------------------------------------------|
D|---------------------------------------------------------------------------|
A|-2-2-2-2-2-2-2-2--4-4-4-4-4-4-4-0------------------------------------------|
E|-----------------------------------4-4-4-4-4-4-4-4--0-0-0-0-0-0-0-0--------|
   x x x x x x x x  x x x x x x x x  x x x x x x x x  x x x x x x x x

e|---------------------------------------------------------------------------|
B|---------------------------------------------------------------------------|
G|---------------------------------------------------------------------------|
D|---------------------------------------------------------------------------|
A|-2-2-2-2-2-2-2-0-----------------------------------------------------------|
E|------------------2-2-2-2-2-2-2-2--4-4-4-4-4-4-4-4-------------------------|
   x x x x x x x x  x x x x x x x x  x x x x x x x x  
[ Tab from: http://www.guitartabs.cc/tabs/b/blink_182/aliens_exist_tab_ver_12.html ]
Chorus (Up, all night long...)
e|---------------------------------------------------------------------------|
B|---------------------------------------------------------------------------|
G|---------------------------------------------------------------------------|
D|-9-9-9-9-9-9-9-9-9-9-9-9\4-4-4-4-4-4-4-4-4-4-4-4---------------------------|
A|-x-x-x-x-x-x-x-x-x-x-x-x\4-4-4-4-4-4-4-4-4-4-4-4---------------------------|
E|-7-7-7-7-7-7-7-7-7-7-7-7\2-2-2-2-2-2-2-2-2-2-2-2---------------------------|

Chorus Ending (know it must be laste...)
e|---------------------------------------------------------------------------|
B|---------------------------------------------------------------------------|
G|---------------------------------------------------------------------------|
D|-1-1---1-1---1-1---1-1---2-2---2-2---2-2---2-2-----------------------------|
A|-----2-----2-----2-----2-----2-----2-----2-----2---------------------------|
E|---------------------------------------------------------------------------|
   x x x x x x x x x x x x x x x x x x x x x x x x

Post Chorus (I'm not like you guys...)
e|---------------------------------------------------------------------------|
B|---------------------------------------------------------------------------|
G|---------------------------------------------------------------------------|
D|---------------------------------------------------------------------------|
A|------------------2~~~~~---------------------------------------------------|
E|--2~~~~~--0~~~~~----------2~~~~~--0----------------------------------------|

Solo
e|---------------------------------------------------------------------------|
B|---------------------------------------------------------------------------|
G|-4444444444444444444444444444444444444444444444444444444444444444----------|
D|-xxxxxxxxxxxxxxxxxxxxxxxxxxxxxxxxxxxxxxxxxxxxxxxxxxxxxxxxxxxxxxxx----------|
A|-2222222222222222222222222222222222222222222222222222222222222222----------|
E|---------------------------------------------------------------------------|

e|---------------------------------------------------------------------------|
B|---------------------------------------------------------------------------|
G|-8888888888888\666666666666666/99999999999999\8888888888-6-----------------|
D|-xxxxxxxxxxxxx\xxxxxxxxxxxxxxx/xxxxxxxxxxxxxx\xxxxxxxxxx-x-----------------|
A|-6666666666666\444444444444444/77777777777777\6666666666-4-----------------|
E|---------------------------------------------------------------------------|

Bridge (Dark and scary...)
e|---------------------------------------------------------------------------|
B|---------------------------------------------------------------------------|
G|---------------------------------------------------------------------------|
D|-6-6-6-6-6-6-6-6-6-6--4-4-4-4-4-4-4-4-4-4--2-2-2-2-2-2-2-2-2-2-------------|
A|-6-6-6-6-6-6-6-6-6-6--4-4-4-4-4-4-4-4-4-4--2-2-2-2-2-2-2-2-2-2-------------|
E|-4-4-4-4-4-4-4-4-4-4--2-2-2-2-2-2-2-2-2-2--0-0-0-0-0-0-0-0-0-0-------------|

e|---------------------------------------------------------------------------|
B|---------------------------------------------------------------------------|
G|-44444444----------8888888888-666666666-9999999999-88888-666---------------|
D|-44444444-44444444-xxxxxxxxxx-xxxxxxxxx-xxxxxxxxxx-xxxxx-xxx---------------|
A|-22222222-44444444-6666666666-444444444-7777777777-66666-444---------------|
E|----------22222222---------------------------------------------------------|

Outro (I'm not like you guys...)
e|---------------------------------------------------------------------------|
B|---------------------------------------------------------------------------|
G|--------9------4-----------------------------------------------------------|
D|-4------9------4-----------------------------------------------------------|
A|-4------7------2-----------------------------------------------------------|
E|-2------0------------------------------------------------------------------|

Order:
Intro x1
Pickslide
Main Riff x2
Verse x1
Chorus x2
Chorus End x2
Post Chorus x1
Main Riff x2
Verse x2
Chorus x2
Chorus End x2
Solo x1
Bridge x1
Chorus x2
Chorus End x2
Outro x2
=============================================================================
Comments