Blink 182 - Aliens Exist Chords & Tabs

 

Aliens Exist Chords & Tabs

Blink 182 Chords & Tabs

Version: 10 Type: Tab 0 ratings
1 star 2 stars 3 stars 4 stars 5 stars
comments

Aliens Exist Tab

   
-------------------------------------------------------------------------------
	Aliens Exist – BLINK 182
-------------------------------------------------------------------------------

Song: ALIENS EXIST
Album: ENEMA OF THE STATE
Tabbed by: FUNKEY MUNKEY
Key:
** = Palm Mute
~~ = Let Ring
XX = Left Hand Damping
<< = Pick Slide
b = Bend String
h = Hammer On
p = Pull Off

INTRO!
e|------------------------|
B|------------------------|
G|-4-4444444444444-4-~~---|
D|-4-4444444444444-x-~~---|
A|-2-2222222222222-2-~~---|
E|------------------------|
     *************

PRE-VERSE!
e|------------------------------------|
B|------------------------------------|
G|-----44444--------------------------|
D|-----44444--22222--666666--222222---|
A|-----22222--22222--666666--222222---|
E|-<<<--------00000--444444--000000---|

VERSE RIFF 1!
e|-------------------------------------|
B|-------------------------------------|
G|-4-444444----------------------------| 
D|-4-444444-4444444-6666666-22222222---|
A|-2-222222-4444444-6666666-22222222---|
E|----------2222222-4444444-00000000---|
     ****** ******* ******* ********

VERSE RIFF 2!
When The Lrics “I know the CIA would say….”
e|-------------------------------------------|
B|-------------------------------------------|
G|-44444444-66666666-------------------------|
D|-44444444-66666666-6666666-222222222-------|
A|-22222222-44444444-6666666-222222222-------|
E|-------------------4444444-000000000-------|
   ******** ******** ******* *********
[ Tab from: http://www.guitartabs.cc/tabs/b/blink_182/aliens_exist_tab_ver_10.html ]
CHORUS!
e|---------------------------------------------------------------------------|
B|---------------------------------------------------------------------------|
G|-4444444444444444------------------444444444444444-------------------------|
D|-4444444444444444-4444444444444444-444444444444444-44444444444444444-------|
A|-2222222222222222-4444444444444444-222222222222222-44444444444444444-------|
E|------------------2222222222222222-----------------22222222222222222-------|
CHORUS 2!
e|--------------------------------------------------|
B|--------------------------------------------------|
G|--------------------------------------------------|
D|-1-1---1-1---1-1---1-1---2-2---2-2---2-2---2-2----|
A|-----2-----2-----2-----2-----2-----2-----2-----2--|
E|--------------------------------------------------|
* * * * * * * * * * * * * * * * * * * * * * * *

POST CHORUS!
   “I’m not like you guys….”
e|-------------------------------------|
B|-------------------------------------|
G|-------------------4~~---------------|
D|-4~~------2~~------4~~---4~~-------2-|
A|-4~~------2~~------2~~---4~~-------2-|
E|-2~~------0~~------------2~~-------0-|


THEN THIS SOLO TYPE THING
e|--------------------------------------------------------|
B|--------------------------------------------------------|
G|-44444444444444-888888888-6666666666-9999999-888888888--|
D|-xxxxxxxxxxxxxx-xxxxxxxxx-xxxxxxxxxx-xxxxxxx-xxxxxxxxx--|
A|-22222222222222-666666666-4444444444-7777777-666666666--|
E|--------------------------------------------------------|

INTERLUDE!
  “Dark and scary…….”
e|------------------------------------------------------------|
B|------------------------------------------------------------|
G|--------------------------------------444444444-66666666666-| 
D|-6666666666-444444444444-222222222222-444444444-66666666666-|
A|-6666666666-444444444444-222222222222-222222222-44444444444-|
E|-4444444444-222222222222-000000000000-----------------------|

OUTRO!
e|-------------------------------------|
B|-------------------------------------|
G|-------------4~~-----------------4~--|
D|-4~~---2~~---4~~---4~~----2~~----4~--|
A|-4~~---2~~---2~~---4~~----2~~----2~--|
E|-2~~---0~~---------2~~----0~~--------|

INTRO x1
PRE VERSE x2
VERSE 1 x2
VERSE 2 x1
VERSE 1 x1
CHORUS 1 x1
CHORUS 2 x2
POST CHORUS x1
PRE VERSE x2
VERSE 1 x2
VERSE 2 x1
VERSE 1 x1
CHORUS 1 x1
CHORUS 2 x2
POST CHORUS x1
SOLO THINGY x1
INTERLUDE x2
CHORUS 1 x1
CHORUS 2 x2
OUTRO x1
Comments