Blink 182 - Aliens Exist Chords & Tabs

 

Aliens Exist Chords & Tabs

Blink 182 Chords & Tabs

Version: 1 Type: Tab 2 ratings
1 star 2 stars 3 stars 4 stars 5 stars
comments

Aliens Exist Tab

   
standard tuning(EADGBE)
I,m 100% sure this is correct.

chords
     F#5    B5
E---------------------
B---------------------
G---------------------
D-----4-----9---------
A-----4-----9---------
E-----2-----7---------

intro
E-----------------------------------------------
B-----------------------------------------------
G-4-4-4-4-4-4-4-4-6-6-6-6-8-8-8-8--4------------
D-4-4-4-4-4-4-4-4-6-6-6-6-8-8-8-8--4------------
A-2-2-2-2-2-2-2-2-4-4-4-4-6-6-6-6--2--let-ring--
E-----------------------------------------------

rythm figure 1
E-----------------------------------------------
B-----------------------------------------------
G-4--4-4--4-------------------------------------
D-4--4-4--4--2--2-2-2--2---6-6--6--6---2--2-2-2-
A-2--2-2--2--2--2-2-2--2---6-6--6--6---2--2-2-2-
E------------0--0-0-0--0---4-4--4--4---0--0-0-0-

play this 2x after a pick scrape

rythm figure for 2nd and 3rd verse
E--------------------------------------------------------------------
B--------------------------------------------------------------------
G-4-4-4-4-4-4-4-4----------------------------------------------------
D-4-4-4-4-4-4-4-4--4-4-4-4-4-4-4-4--6-6-6-6-6-6-6-6--2-2-2-2-2-2-2-2-
A-2-2-2-2-2-2-2-2--4-4-4-4-4-4-4-4--6-6-6-6-6-6-6-6--2-2-2-2-2-2-2-2-
E------------------2-2-2-2-2-2-2-2--4-4-4-4-4-4-4-4--0-0-0-0-0-0-0-0-
p.m..................................................................
[ Tab from: http://www.guitartabs.cc/tabs/b/blink_182/aliens_exist_tab.html ]
E--------------------------------------------------------------------
B--------------------------------------------------------------------
G-4-4-4-4-4-4-4-4--6-6-6-6-6-6-6-6-----------------------------------
D-4-4-4-4-4-4-4-4--6-6-6-6-6-6-6-6--6-6-6-6-6-6-6-6--2-2-2-2-2-2-2-2-
A-2-2-2-2-2-2-2-2--4-4-4-4-4-4-4-4--6-6-6-6-6-6-6-6--2-2-2-2-2-2-2-2-
E-----------------------------------4-4-4-4-4-4-4-4--0-0-0-0-0-0-0-0-
p.m..................................................................

E--------------------------------------------------------------------
B--------------------------------------------------------------------
G-4-4-4-4-4-4-4-4----------------------------------------------------
D-4-4-4-4-4-4-4-4--4-4-4-4-4-4-4-4--6-6-6-6-6-6-6-6--2-2-2-2-2-2-2-2-
A-2-2-2-2-2-2-2-2--4-4-4-4-4-4-4-4--6-6-6-6-6-6-6-6--2-2-2-2-2-2-2-2-
E------------------2-2-2-2-2-2-2-2--4-4-4-4-4-4-4-4--0-0-0-0-0-0-0-0-
p.m..................................................................

riff 1(play 2x)
E-------------------------------------------------
B-------------------------------------------------
G-------------------------------------------------
D-1-1---1-1---1-1---1-1----2-2---2-2---2-2---2-2--
A----2-----2-----2-----2------2-----2-----2-----2-
E-------------------------------------------------
p.m...............................................

chorus
B5             F#5
up all night long 
           B5                 F#5
and there's something very wrong

play riff 1 over


thats it. Have fun!!!!!
Comments