Blink 182 - Aliens Exist Live Chords & Tabs

 

Aliens Exist Live Chords & Tabs

Blink 182 Chords & Tabs

Version: 2 Type: Tab 0 ratings
1 star 2 stars 3 stars 4 stars 5 stars
comments

Aliens Exist Live Tab

   
Tabbed Live By Jeremy Antoine
Blink 182 Enema Of The State
Standard Tunning
Intro
P.M.......................
e|------------------------------|
B|------------------------------|
G|-4-4-4-4-4-4-4-4-4-4-4-4--4~--|
D|-4-4-4-4-4-4-4-4-4-4-4-4--x~--|
A|-2-2-2-2-2-2-2-2-2-2-2-2--2~--|
E|------------------------------|
Pick Strape going into riff 2
 Riff x 2
e|------------------------------------------------------|
B|------------------------------------------------------|
G|-4-4-4-4-4-4------------------------------------------|
D|-4-4-4-4-4-4--2-2-2-2-2--6-6-6-6-6-6--2-2-2-2-2-------|
A|-2-2-2-2-2-2--2-2-2-2-2--6-6-6-6-6-6--2-2-2-2-2-------|
E|--------------0-0-0-0-0--4-4-4-4-4-4--0-0-0-0-0-------|

  Verse(Palm Mute)
e|------------------------------------------------------|
B|------------------------------------------------------|
G|-4-4-4-4-4-4------------------------------------------|
D|-4-4-4-4-4-4--4-4-4-4-4-4--6-6-6-6-6-6--2-2-2-2-2-2---|
A|-2-2-2-2-2-2--4-4-4-4-4-4--6-6-6-6-6-6--2-2-2-2-2-2---|
E|--------------2-2-2-2-2-2--4-4-4-4-4-4--0-0-0-0-0-0---|

e|------------------------------------------------------|
B|------------------------------------------------------|
G|-4-4-4-4-4-4------------------------------------------|
D|-4-4-4-4-4-4--4-4-4-4-4-4--6-6-6-6-6-6--2-2-2-2-2-2---|
A|-2-2-2-2-2-2--4-4-4-4-4-4--6-6-6-6-6-6--2-2-2-2-2-2---|
E|--------------2-2-2-2-2-2--4-4-4-4-4-4--0-0-0-0-0-0---|

e|------------------------------------------------------|
B|------------------------------------------------------|
G|-4-4-4-4-4-4--6-6-6-6-6-6-----------------------------|
D|-4-4-4-4-4-4--6-6-6-6-6-6--6-6-6-6-6-6--2-2-2-2-2-2---|
A|-2-2-2-2-2-2--4-4-4-4-4-4--6-6-6-6-6-6--2-2-2-2-2-2---|
E|---------------------------4-4-4-4-4-4--0-0-0-0-0-0---|

e|------------------------------------------------------|
B|------------------------------------------------------|
G|-4-4-4-4-4-4------------------------------------------|
D|-4-4-4-4-4-4--4-4-4-4-4-4--6-6-6-6-6-6--2-------------|
A|-2-2-2-2-2-2--4-4-4-4-4-4--6-6-6-6-6-6--2-------------|
E|--------------2-2-2-2-2-2--4-4-4-4-4-4--0-------------|

[ Tab from: http://www.guitartabs.cc/tabs/b/blink_182/aliens_exist_live_tab_ver_2.html ]
  Chorus
e|------------------------------------------------------|
B|------------------------------------------------------|
G|-4-4-4-4-4-4---------------4-4-4-4-4-4----------------|
D|-4-4-4-4-4-4--4-4-4-4-4-4--4-4-4-4-4-4--4-4-4-4-4-4---|
A|-2-2-2-2-2-2--4-4-4-4-4-4--2-2-2-2-2-2--4-4-4-4-4-4---|
E|--------------2-2-2-2-2-2---------------2-2-2-2-2-2---|

  Chorus b x 2(palm muted)
e|------------------------------------------------------|
B|------------------------------------------------------|
G|------------------------------------------------------|
D|-1-1---1-1---1-1---1-1-----2-2---2-2---2-2---2-2------|
A|-----2-----2-----2------2------2-----2-----2-----2----|
E|------------------------------------------------------|
  Chorus c
e|----------------------------------------|
B|----------------------------------------|
G|------------------4~--------------------|
D|-4~------2~-------4~----4~------2~------|
A|-4~------2~-------2~----4~------2~------|
E|-2~------0~-------------2~------0~------|


  SOLO
e|---------------------------------------------|
B|---------------------------------------------|
G|-4-4-4-4-4-4-4-4-4-4-4-4-4-4-4-4-4-4-4-4-4-4-|
D|-x-x-x-x-x-x-x-x-x-x-x-x-x-x-x-x-x-x-x-x-x-x-|
A|-2-2-2-2-2-2-2-2-2-2-2-2-2-2-2-2-2-2-2-2-2-2-|
E|---------------------------------------------|

e|-------------------------------------------------|
B|-------------------------------------------------|
G|-8-8-8-8-8-8-6-6-6-6-6-6-9-9-9-9-9-9-------------|
D|-x-x-x-x-x-x-x-x-x-x-x-x-x-x-x-x-x-x-------------|
A|-6-6-6-6-6-6-4-4-4-4-4-4-7-7-7-7-7-7-------------|
E|-------------------------------------------------|

  Verse2 x 2

e|---------------------------------------------------------------|
B|---------------------------------------------------------------|
G|----------------------------------------------4-4-4-4--6-6-6-6-|
D|-6-6-6-6-6-6-6--4-4-4-4-4-4-4--2-2-2-2-2-2-2--4-4-4-4--6-6-6-6-|
A|-6-6-6-6-6-6-6--4-4-4-4-4-4-4--2-2-2-2-2-2-2--2-2-2-2--4-4-4-4-|
E|-4-4-4-4-4-4-4--2-2-2-2-2-2-2--0-0-0-0-0-0-0-------------------|

  Outro
e|--------------------------------------------|
B|--------------------------------------------|
G|------------------4~--------------------4~--|
D|-4~------2~-------4~----4~-----2~-------4~--|
A|-4~------2~-------2~----4~-----2~-------2~--|
E|-2~------0~-------------2~-----0~-----------|

Intro
Slide
Riff
verse
chorus
chorus b
chorus c
riff
Verse
chorus
chorus b
chorus c
Solo
verse2
Outro

AS Done by BLINK 182 In Sydney Australia (Big Day Out) Download Off
The Internet to see for your self.

PLEASE RATE THIS TAB BECAUSE IT'S 100% CORRECT AND SOUNDS PERFECT
Comments