Blink 182 - Adams Song Chords & Tabs

 

Adams Song Chords & Tabs

Blink 182 Chords & Tabs

Version: 5 Type: Tab 10 ratings
1 star 2 stars 3 stars 4 stars 5 stars
comments

Adams Song Tab

Song: Adam’s Song
Performed by: Blink 182
Tabbed by: Kevin Payonk

Intro
E|-----------------------------------
B|-----------------------------------
G|-----------------------------------
D|------2---------------------------- (Repeat 16x)
A|-----------3-----------------------
E|---3--------------------------------

Verse 1 (Bass riff 4x, guitar 2x)
E|------------------------------------
B|------------------------------------
G|------------------------------------
D|----5--3----7--3----2------------- (Repeat 2x)
A|-------------------------3----------
E|--3------3------3------------------
[ Tab from: http://www.guitartabs.cc/tabs/b/blink_182/adams_song_tab_ver_5.html ]
Chorus
E|---------------------------------------
B|---------------------------------------
G|---------------------------------------
D|-------------------5----7------------- (Repeat 2x)
A|---3---5----------3----5---7---3----
E|-----------5---1------------5---1-----

Intro (Repeat 16x)

Verse 2 (Bass riff 4x, guitar 2x)
E|------------------------------------------
B|------------------------------------------
G|------------------------------------------
D|-----5--3----7--3----2----------0------ (Repeat 2x)
A|---------------------------3---------3---
E|---3--------3--------3--------3---------

Chorus (Repeat 2x)

Interlude
E|------------------------------------
B|------------------------------------
G|------------------------------------
D|------------------------------------ (Repeat 12x)
A|--7-----3------3---------------------
E|------------3------------------------

Chorus (Repeat 2x)
  



Comments