Blink 182 - Adams Song Chords & Tabs

 

Adams Song Chords & Tabs

Blink 182 Chords & Tabs

Version: 3 Type: Tab 0 ratings
1 star 2 stars 3 stars 4 stars 5 stars
comments

Adams Song Tab

   
Blink 182 - Adam's Song (Enema of the State)
tabbed by Allan Carruthers
acarruth@hotmail.com

dropped D tuning..

intro (x2)

e---------------------------------------------------------------
b---------------------------------------------------------------
g---------------------------------------------------------------
d-------2--------2--------2---------2---------2--------2--------
a----0----3---0-----3--------3---------3--------3--------3------
d----------------------5---------5---------3--------3-----------

e---------------------------------------------------------------
b---------------------------------------------------------------
g---------------------------------------------------------------
d-----2-------2-------------------------------------------------
a-------3-------3-----------------------------------------------
d--0--------0---------------------------------------------------

palm mute this eh?

verse

e---------------------------------------------------------------
b---------------------------------------------------------------
g---5--5--------------------------------------------------------
d---5--5-etc---3--3--------7--7-------3--3----------------------
a---3--3-------3--3--etc---7--7--etc--3--3----------------------
d--------------3--3--------7--7-------3--3----------------------

interlude (x2)
[ Tab from: http://www.guitartabs.cc/tabs/b/blink_182/adams_song_tab_ver_3.html ]
e---------------------------------------------------------------
b---------------------------------------------------------------
g------0----------0----------2----------2-----------------------
d----------3---------3-----------3---------3--------------------
a---3----------3----------5----------5--------------------------
d---------------------------------------------------------------

e--------------------------*----------*-------------------------
b---------------------------------------------------------------
g---------------------------------------------------------------
d------2---------2---------2----------2-------------------------
a---0-----3---0-----3----------3---------3----------------------
d-----------------------3----------3----------------------------

* during the second interlude do open (0) instead of 2 on d string

then

e---------------------------------------------------------------
b---5--5-------7--7---------------------------------------------
g---5--5-------7--7---------------------------------------------
d---5--5--etc--7--7--etc--7--7--------3--3----------------------
a---3--3-------5--5-------7--7--etc---3--3----------------------
d-------------------------7--7--------3--3----------------------

then this.. hehe

e---------------------------------------------------------------
b---5--5-------6--6-------1--1-------10--10---------------------
g---5--5-------7--7-------2--2-etc---10--10---------------------
d---5--5--etc--7--7-etc---2--2-------10--10---------------------
a---3--3-------5--5------------------8---8----------------------
d---------------------------------------------------------------

kick in fat distortion and do above chords again

intro x2
verse
interlude (note *)
the 'then and then this' part.. (you figger it out its not hard hehe)

at this point im too tired to do that stuff under the piano
its similar to the intro and interlude.. jsut play around with the top
of a C chord

Allan Carruthers
acarruth@hotmail.com
Comments