Blink 182 - Adams Song Chords & Tabs

 

Adams Song Chords & Tabs

Blink 182 Chords & Tabs

Version: 14 Type: Tab 0 ratings
1 star 2 stars 3 stars 4 stars 5 stars
comments

Adams Song Tab

Blink 182, Adam's Song.
 Tabbed by Kevin Barrett, silent_marauder@hotmail.com.
  
Blink 182
"Adam's Song"
Enema of the State
Tabbed by The Silent Marauder
Silent_marauder@hotmail.com
ICQ: 6632248

This is my second tab (both Blink), so if it still sucks. . . oh well.
Intro

-------------------------------------------------------------------------------------
-------------------------------------------------------------------------------------
-------------------------------------------------------------------------------------
-----2---------2---------2----------2-----------2-----------2------------2--------2- X 2
-0------3--0-----3---------3----------3-----------3-----------3-----------3---------3
-----------------------3---------3-----------1-----------1-------------0--------1----



Verse

----------------------------------------------------------------------------
----------------------------------------------------------------------------
-----5-5-5-5-5-5------------------2-2-2-2-2-2------------------------------- X 4
-----5-5-5-5-5-5--3-3-3-3-3-3-----2-2-2-2-2-2---3-3-3-3-3-3-----------------
-----3-3-3-3-3-3--3-3-3-3-3-3-----0-0-0-0-0-0---3-3-3-3-3-3-----------------
------------------1-1-1-1-1-1-------------------1-1-1-1-1-1-----------------



Bridge before chorus

[ Tab from: http://www.guitartabs.cc/tabs/b/blink_182/adams_song_tab_ver_14.html ]
-----------------------------------------------------------------------------------
-----------------------------------------------------------------------------------
----0---------0-----------2----------2--------------------------------------------- X2
-------3---------3----0------3---0------3-------2---------2---------2----------2---
-3---------3-----------------------------------0-----3---0-----3---------3--------3
------------------------------------------------------------------1-----------1-

Chorus (2 parts)

1st Part
-------------------------------------------------------------------
-------------------------------------------------------------------
--------5-5-5-5-5-5----7-7-7-7-7-7---2-2-2-2-2-2-------------------
--------5-5-5-5-5-5----7-7-7-7-7-7---2-2-2-2-2-2--3-3-3-3-3-3------
--------3-3-3-3-3-3----5-5-5-5-5-5---0-0-0-0-0-0--3-3-3-3-3-3------
--------------------------------------------------1-1-1-1-1-1------

2nd part
-------------------------------------------------------------------
-------------------------------------------------------------------
------5-5-5-5-5-5---7-7-7-7-7-7---2-2-2-2-2-2-2-10-10-10-10-10-10-
------5-5-5-5-5-5---7-7-7-7-7-7---2-2-2-2-2-2-2-10-10-10-10-10-10-
------3-3-3-3-3-3---5-5-5-5-5-5---0-0-0-0-0-0-0--8--8---8---8---8--8-

Riff during Piano part

=====
G----5-
D--5---
=====

 
:: Ultimate Guitar Archive :: 
http://www.ultimate-guitar.com 


Comments