Blink 182 - Adams Song Chords & Tabs

 

Adams Song Chords & Tabs

Blink 182 Chords & Tabs

Version: 12 Type: Tab 0 ratings
1 star 2 stars 3 stars 4 stars 5 stars
comments

Adams Song Tab

adams song 
acoustic  guitar
 
1|---------------------------------------------------------------------------
2|---------------------------------------------------------------------------
3|---------------------------------------------------------------------------
4|----4--0-----4--0-----4--0------4--0------4--0-----4--0-----4--0-----4--0--
5|--2--------2--------0---------0--------------------------------------------
6|----------------------------------------3--------3--------0--------0-------

1|---------------------------------------------------------------------------
2|---------------------------------------------------------------------------
3|---------------------------------------------------------------------------
4|----4--0-----4--0-----4--0------4--0------4--0-----4--0-----4--0-----4--0--
5|--2--------2--------0---------0--------------------------------------------
6|----------------------------------------3--------3--------0--------3-------


1|---------------------------------------------| 
2|---------------------------------------------|
3|---------------------------------------------|Repeat 4 times
4|--77777777------------44444444---------------|
5|--55555555--55555555--22222222--55555555-----|
6|------------33333333------------33333333-----|


1|----------------------------------------------------------|
2|----------------------------------------------------------|
3|------0------0-----0-----0--------------------------------|
4|----7------7-----9-----9-----4--0----4--0---4--0---4--0---|
5|--5------5-----7-----7-----2-------2----------------------|
6|------------------------------------------3------3--------|


1|----------------------------------------------------------|
2|----------------------------------------------------------|
3|------0------0-----0-----0--------------------------------|
4|----7------7-----9-----9-----4--0----4--0---4--0---4--0---|
5|--5------5-----7-----7-----2-------2----------------------|
6|------------------------------------------3------3--------|


 play each chord eight times 
 repeat 2 times                       repeat 2 times
1----------------------------------|------------------------------------
2----------------------------------|------------------------------------
3-------------7-----9--------------|----11----12-----11-----12----------
4------------x-----x----9----5-----|---x------x------x------x-----------
5------------5-----7----x----x-----|---9-----10-----9------10-----------
6------------------------7----3----|------------------------------------

1|---------------------------------------------------------------------------
2|---------------------------------------------------------------------------
3|---------------------------------------------------------------------------
4|----4--0-----4--0-----4--0------4--0------4--0-----4--0-----4--0-----4--0--
5|--2--------2--------0---------0--------------------------------------------
6|----------------------------------------3--------3--------0--------0-------
[ Tab from: http://www.guitartabs.cc/tabs/b/blink_182/adams_song_tab_ver_12.html ]
1|---------------------------------------------------------------------------
2|---------------------------------------------------------------------------
3|---------------------------------------------------------------------------
4|----4--0-----4--0-----4--0------4--0------4--0-----4--0-----4--0-----4--0--
5|--2--------2--------0---------0--------------------------------------------
6|----------------------------------------3--------3--------0--------3-------


1|---------------------------------------------| 
2|---------------------------------------------|
3|---------------------------------------------|Repeat 4 times
4|--77777777------------44444444---------------|
5|--55555555--55555555--22222222--55555555-----|
6|------------33333333------------33333333-----|


1|----------------------------------------------------------|
2|----------------------------------------------------------|
3|------0------0-----0-----0--------------------------------|
4|----7------7-----9-----9-----4--0----4--0---2--0---2--0---|
5|--5------5-----7-----7-----2-------2----------------------|
6|------------------------------------------3------3--------|


1|----------------------------------------------------------|
2|----------------------------------------------------------|
3|------0------0-----0-----0--------------------------------|
4|----7------7-----9-----9-----4--0----4--0---4--0---4--0---|
5|--5------5-----7-----7-----2-------2----------------------|
6|------------------------------------------3------3--------|

play each chord eight times 
 repeat 2 times                       repeat 2 times
1----------------------------------|------------------------------------
2----------------------------------|------------------------------------
3-------------7-----9--------------|----11----12-----11-----12----------
4------------x-----x----9----5-----|---x------x------x------x-----------
5------------5-----7----x----x-----|---9-----10-----9------10-----------
6------------------------7----3----|------------------------------------

piano part.
1-----------------------------------------------------------
2-15--17------15-17-15--20-19-17-15----15-17--------15-17-15
3---------14------------------------14-------14--14---------
4-----------------------------------------------------------
5-----------------------------------------------------------
6-----------------------------------------------------------

1--------17--------------------
2-19-20------------------------
3------------------------------
4------------------------------
5------------------------------
6------------------------------

back to guitar.
play each chord eight times 
 repeat 2 times                       repeat 2 times
1----------------------------------|------------------------------------
2----------------------------------|------------------------------------
3-------------7-----9--------------|----11----12-----11-----12----------
4------------x-----x----9----5-----|---x------x------x------x-----------
5------------5-----7----x----x-----|---9-----10-----9------10-----------
6------------------------7----3----|------------------------------------
Comments