Blink 182 - Adams Song Live Chords & Tabs

 

Adams Song Live Chords & Tabs

Blink 182 Chords & Tabs

Version: 3 Type: Tab 2 ratings
1 star 2 stars 3 stars 4 stars 5 stars
comments

Adams Song Live Tab

this is the real thing, no pay any attention to the others like 
adam's_song_live3

that made me sick

u cant tab worth crap

here's the real thing..............drop d tuning

Intro2x
1------------- ------------- ------------ --------------------
2------------- ------------- ------------ --------------------
3------------- ------------- ------------ --------------------
4----4-0---4-0 ---4-0---4-0- --4-0---4-0- --4-0---4-0---------
5--2-----2---- -0-----0----- ------------ --------------------
6------------- ------------- 3-----3----- 0-----3-------------

verse~palmuted
1-------------------------------
2-------------------------------
3-------------------------------
4--7-------4--------------------
5--5---5---2---5----------------
6------3-------3----------------
   8x  8x  8x  8x

Interlude2x
1------------------------------------------------------------------
2------------------------------------------------------------------
3--------0--------0--------0--------0------------------------------
4-----7--------7--------9--------9--------4--0----4--0----4-0---4-0
5--5--------5--------7--------7--------2-------2-------------------
6-------------------------------------------------------3-----3----

pre-chorus2x
1------------------------------------------------------------------
2------------------------------------------------------------------
3--7---9-----------------------------------------------------------
4--x---x---9---5---------------------------------------------------
5--5---7---x---x---------------------------------------------------
6----------7---3---------------------------------------------------
   8x  8x  8x  8x

chorus2x
1------------------------------------------------------------------
2------------------------------------------------------------------
3--7---9-----------------------------------------------------------
4--7---9---9---5---------------------------------------------------
5--5---7---9---5---------------------------------------------------
6----------7---3---------------------------------------------------
   8x  8x  8x  8x


Intro2x
1------------- ------------- ------------ --------------------
2------------- ------------- ------------ --------------------
3------------- ------------- ------------ --------------------
4----4-0---4-0 ---4-0---4-0- --4-0---4-0- --4-0---4-0---------
5--2-----2---- -0-----0----- ------------ --------------------
6------------- ------------- 3-----3----- 0-----3-------------

verse~palmuted
1-------------------------------
2-------------------------------
3-------------------------------
4--7-------4--------------------
5--5---5---2---5----------------
6------3-------3----------------
   8x  8x  8x  8x

[ Tab from: http://www.guitartabs.cc/tabs/b/blink_182/adams_song_live_tab_ver_3.html ]
Interlude2x                       watch the change on the last part
1------------------------------------------------------------------
2------------------------------------------------------------------
3--------0--------0--------0--------0------------------------------
4-----7--------7--------9--------9--------4--0----4--0----2-0---2-0
5--5--------5--------7--------7--------2-------2-------------------
6-------------------------------------------------------3-----3----

pre-chorus2x
1------------------------------------------------------------------
2------------------------------------------------------------------
3--7---9-----------------------------------------------------------
4--x---x---9---5---------------------------------------------------
5--5---7---x---x---------------------------------------------------
6----------7---3---------------------------------------------------
   8x  8x  8x  8x

chorus2x
1------------------------------------------------------------------
2------------------------------------------------------------------
3--7---9-----------------------------------------------------------
4--7---9---9---5---------------------------------------------------
5--5---7---9---5---------------------------------------------------
6----------7---3---------------------------------------------------
   8x  8x  8x  8x

solo part1   play 2x
1------------------------------------------------------------------
2------------------------------------------------------------------
3-------0---0--------0---0--------0---0--------0---0---------------
4-----4---4---4----4---4---4----4---4---4----4---4---4-------------
5---5--------------------------------------5-----------------------
6----------------0------------2------------------------------------

solo part2 play 2x
1------------------------------------------------------------------
2------------------------------------------------------------------
3------7---7---7---7---7-------------------------------------------
4--0-0---0---0---0---0---------------------------------------------
5------------------------------------------------------------------
6------------------------------------------------------------------

chorus4x
1------------------------------------------------------------------
2------------------------------------------------------------------
3--7---9-----------------------------------------------------------
4--7---9---9---5---------------------------------------------------
5--5---7---9---5---------------------------------------------------
6----------7---3---------------------------------------------------
   8x  8x  8x  8x

ending note
1-
2-
3-7
4-7
5-5
6-


what up to jim and my brothas and kylie my girl

Comments