Blink 182 - Adams Song Live Chords & Tabs

 

Adams Song Live Chords & Tabs

Blink 182 Chords & Tabs

Version: 1 Type: Bass Tab 0 ratings
1 star 2 stars 3 stars 4 stars 5 stars
comments

Adams Song Live Bass Tab

Guitartab Universe Tabs
Blink 182
Adam's Song
Tabbed by: jhurley12


Verse
g-------------------------------------|
d-------------------------------------|
a-33333333----------00000000----------|
e----------11111111----------11111111-|

Chorus Riff 1 (I never conquered...)
g-------------------------------------|
d-------------------------------------|
a-33333333-55555555-------------------|
e-------------------55555555-11111111-|

Chorus Riff 2
g-------------------------------------|
d-------------------------------------|
a-33333333-55555555-88888888----------|
e----------------------------11111111-|
[ Tab from: http://www.guitartabs.cc/tabs/b/blink_182/adams_song_live_btab.html ]
Bridge Riff 1 (repeat 4x)
g---------------5---5--5---7---7--7---9---5--5--|
d.---5---5--5-33--33--3--55--55--5--77--33--3--.|
a.-33--33--3-----------------------------------.|
e-----------------------------------------------|

Bridge Riff 2
g--------------5---5--5--------------5---5--5---------------5---5--5-|
d---5---5--5-33--33--3----5---5--5-33--33--3-----5---5--5-33--33--3--|
a-33--33--3-------------33--33--3--------------33--33--3-------------|
e--------------------------------------------------------------------|

g---7---7--7---9---5--5-|
d-55--55--5--77--33--3--|
a-----------------------|
e-----------------------|

if you have any comments,questions, or corrections e-mail me at
jhurley12@yahoo.com
Comments