Blink 182 - Adams Song Chords & Tabs

 

Adams Song Chords & Tabs

Blink 182 Chords & Tabs

Version: 7 Type: Bass Tab 0 ratings
1 star 2 stars 3 stars 4 stars 5 stars
comments

Adams Song Bass Tab

from Enema of the State
Adam's Song
Words and Music by Tom De Longe and Mark Hoppus
Moderate Rock = 136bpm


Intro - No Bass (8 bars)

Verse
|----------------|----------------|----------------|----------------|
|----------------|----------------|----------------|----------------|
|3-3-3-3-3-3-3-3-|----------------|0-0-0-0-0-0-0-0-|----------------|
|----------------|1-1-1-1-1-1-1-1-|----------------|1-1-1-1-1-1-1-1-|

Interlude 1
|----------------|----------------|----------------|------(0)---------|
|-5--------------|----------------|----------------|------(0)---------|
|-3--------------|----------------|----------------|------(3)---------|
|----------------|----------------|----------------|------------------|
                                                           < *Fade in w/ vol. knob.

|----------------|----------------|----------------|----------------|
|----------------|----------------|----------------|----------------|
|3-3-3-3-3-3-3-3-|5-5-5-5-5-5-5-5-|0-0-0-0-0-0-0-0-|----------------|
|----------------|----------------|----------------|1-1-1-1-1-1-1-1-|

Chorus
|----------------|----------------|----------------|----------------|
|----------------|----------------|----------------|----------------|
|3-3-3-3-3-3-3-3-|5-5-5-5-5-5-5-5-|0-0-0-0-0-0-0-0-|----------------|
|----------------|----------------|----------------|1-1-1-1-1-1-1-1-|
[ Tab from: http://www.guitartabs.cc/tabs/b/blink_182/adams_song_btab_ver_7.html ]
|----------------|----------------|----------------|----------------|
|----------------|----------------|----------------|----------------|
|3-3-3-3-3-3-3-3-|5-5-5-5-5-5-5-5-|0-0-0-0-0-0-0-0-|8-8-8-8-8-8-8-8-|
|----------------|----------------|----------------|----------------|

|----------------|----------------|----------------|------------------------|
|5-5-5-5-5-5-5-5-|7-7-7-7-7-7-7-7-|7-7-7-7-7-7-7-7-|10-10-10-10-10-10-10-10-|
|3-3-3-3-3-3-3-3-|5-5-5-5-5-5-5-5-|0-0-0-0-0-0-0-0-|8--8--8--8--8--8--8--8--|
|----------------|----------------|----------------|------------------------|

|----------------|----------------|----------------|------------------------|
|5-5-5-5-5-5-5-5-|7-7-7-7-7-7-7-7-|7-7-7-7-7-7-7-7-|10-10-10-10-10-10-10-10-|
|3-3-3-3-3-3-3-3-|5-5-5-5-5-5-5-5-|0-0-0-0-0-0-0-0-|8--8--8--8--8--8--8--8--|
|----------------|----------------|----------------|------------------------|

Interlude 2 (Let all notes ring)
|----------------|----5-----5---5-|----7-----7---7-|----5-----5---5-|
|----5-----5---5-|3-3---3-3---3---|5-5---5-5---5---|3-3---3-3---3---|
|3-3---3-3---3---|----------------|----------------|----------------|
|----------------|----------------|----------------|----------------|

|----------------|----5-----5---5-|----7-----7---7-|----9-------5---|
|----5-----5---5-|3-3---3-3---3---|5-5---5-5---5---|7-7-----3-3-----|
|3-3---3-3---3---|----------------|----------------|----------------|
|----------------|----------------|----------------|----------------|

End Note
|----------------|
|-5-~-~-~-~-~-~-~|
|-3-~-~-~-~-~-~-~|
|----------------|


Intro (no bass)
Verse  x4
Interlude 1
Chorus
Intro (no bass)
Verse  x4
Interlude 1
Chorus
Interlude 2  x3
Chorus
End Note
Comments