Blink 182 - Adams Song Chords & Tabs

 

Adams Song Chords & Tabs

Blink 182 Chords & Tabs

Version: 5 Type: Bass Tab 0 ratings
1 star 2 stars 3 stars 4 stars 5 stars
comments

Adams Song Bass Tab

   
This is the corrected version of my tab before. i screwed up the intro. enjoy. comments or corrections email me at bigsporter616@hotmail.com
Artist:Blink 182
Song:Adam's song
standard tuning

Intro:play slow
g------------------------|
d------------------------|
a------------------------| x2
e-5-5-3-3-1-1-0-1--------|

Verse
g----------------------------------|
d----------------------------------|
a-33333333--------00000000---------| x4
e---------11111111--------11111111-|

Pre-course:Once again play slow
g-------------------|
d-------------------|
a-------------------| x2
e-8-8-10-10-5-5-1-1-|
[ Tab from: http://www.guitartabs.cc/tabs/b/blink_182/adams_song_btab_ver_5.html ]
Course
g------------------------------------|
d------------------------------------|
a-333333333-55555555-----------------| x4
e-------------------55555555-11111111|
Repeat this same thing for a second time

Bridge
g----------------------------------------------------|
d----------------------------------------------------|
a---------33333333-55555555------------------33333333|
e-11111111-----------------555555555-11111111--------|

g-------------------|
d-------------------|
a-55555555-7777-3333| x2
e-------------------|

g-------------------------------------------------------|
d-------------------------------------------------------|
a--------3-3-3-3--------3-3-3-3-------3-3-3-3-5555-77-33| x1
e-1-1-1-1--------1-1-1-1-------1-1-1-1------------------|

play the course again
end with the third fret of the a string
Comments