Blink 182 - Adams Song Chords & Tabs

 

Adams Song Chords & Tabs

Blink 182 Chords & Tabs

Version: 2 Type: Bass Tab 0 ratings
1 star 2 stars 3 stars 4 stars 5 stars
comments

Adams Song Bass Tab

Tabbed By: Jack Rolett
E-Mail: lvlissing@hotmail.com

     Adam's Song!

   *Verse*
   -"I never thought I'd die alone..."
G: |-------------------------------------|
D: |-------------------------------------| x4
A: |-33333333----------00000000----------|
E: |----------11111111----------11111111-|

   *Pre-Chorus*
   -(While guitar is picking the second time)
G: |-------------------------------------|
D: |----------0-0-0-0--------------------| x1
A: |-3-3-3-3-----------0-0-0-0-----------|
E: |----------------------------1-1-1-1--|

   *Chorus*
   -"I never conquered, rarely came..."
G: |-------------------------------------|
D: |----------00000000-------------------| x1
A: |-33333333----------00000000----------|
E: |---------------------------11111111--|

G: |-------------------------------------|
D: |----------00000000----------00000000-| x1
A: |-33333333----------33333333----------|
E: |-------------------------------------|

G: |-------------------------------------|
D: |-00000000-22222222-------------------| x2
A: |-------------------22222222-00000000-|
E: |-------------------------------------|

   *Pre-Verse*
   -(While guitar is picking the second time)
G: |-------------------------------------|
D: |-------------------------------------| x1
A: |-3-3-3-3----------0-0-0-0------------|
E: |----------1-1-1-1---------1-1-1-1----|

   *Verse*
   -"I never thought I'd die alone..."
G: |-------------------------------------|
D: |-------------------------------------| x4
A: |-33333333----------00000000----------|
E: |----------11111111----------11111111-|

   *Pre-Chorus*
   -(While guitar is picking the second time)
G: |-------------------------------------|
D: |----------00000000-------------------| x1
A: |-33333333----------00000000----------|
E: |----------------------------11111111-|
[ Tab from: http://www.guitartabs.cc/tabs/b/blink_182/adams_song_btab_ver_2.html ]
   *Chorus*
   -"I never conquered, rarely came..."
G: |-------------------------------------|
D: |----------00000000-------------------| x1
A: |-33333333----------00000000----------|
E: |---------------------------11111111--|

G: |-------------------------------------|
D: |----------00000000----------00000000-| x1
A: |-33333333----------33333333----------|
E: |-------------------------------------|

G: |-------------------------------------|
D: |-00000000-22222222-------------------| x2
A: |-------------------22222222-00000000-|
E: |-------------------------------------|

   *Bridge*
G: |------------5--5-5---7--7-7---5--5-5-|
D: |---5--5-5-33-33-3--55-55-5--33-33-3--| x1
A: |-33-33-3-----------------------------|
E: |-------------------------------------|

G: |------------5--5-5---7--7-7---9---5--|
D: |---5--5-5-33-33-3--55-55-5--77--33---| x1
A: |-33-33-3-----------------------------|
E: |-------------------------------------|

G: |------------5--5-5---7--7-7---5--5-5-|
D: |---5--5-5-33-33-3--55-55-5--33-33-3--| x1
A: |-33-33-3-----------------------------|
E: |-------------------------------------|

G: |------------5--5-5---7--7-7---9---5--|
D: |---5--5-5-33-33-3--55-55-5--77--33---| x1
A: |-33-33-3-----------------------------|
E: |-------------------------------------|

   *Chorus*
   -"I never conquered, rarely came..."
G: |-------------------------------------|
D: |----------00000000-------------------| x1
A: |-33333333----------00000000----------|
E: |---------------------------11111111--|

G: |-------------------------------------|
D: |----------00000000----------00000000-| x1
A: |-33333333----------33333333----------|
E: |-------------------------------------|

G: |-------------------------------------|
D: |-00000000-22222222-------------------| x2
A: |-------------------22222222-00000000-|
E: |-------------------------------------|

   *Outro*
G: |---------------------|
D: |---------------------|   Let
A: |-3~~~~~~~~~~~~~~~~~~-|   Ring...
E: |---------------------|

That's my interpritation of the song. There may be a few sketchy parts in it but overall
I think it's pretty good. If you see anything wrong with it post a comment or let me know. 
I'll have Carousel posted soon so look for that also.
Comments