Blink 182 - Action Chords & Tabs

 

Action Chords & Tabs

Blink 182 Chords & Tabs

Version: 7 Type: Tab 0 ratings
1 star 2 stars 3 stars 4 stars 5 stars
comments

Action Tab

Tabbed by:GoBrUleZ
Okay, this is an easy song, i figured it out in like, 10 minutes, but its a good one.
Im sure this is 99 to 100% correct. Here it is
[ Tab from: http://www.guitartabs.cc/tabs/b/blink_182/action_tab_ver_7.html ]
Tuning:standard
Intro/verse
e|------------------------------------------------------------------x2
B|-------------------------------------------------------------------
G|-9-9-9-9--------9-9-9-13-------------------------------------------
D|-x-x-x-x--2-2-2-x-x-x--x-------------------------------------------
A|-7-7-7-7--2-2-2-7-7-7-11-------------------------------------------
E|----------0-0-0----------------------------------------------------
chorus: when mark says "place" on first and second choruses
e|---------------------------------------------------------------------------
B|---------------------------------------------------------------------------
G|-9-------------------------------------------------------------------------
D|-x-------------------------------------------------------------------------
A|-7-------------------------------------------------------------------------
E|---------------------------------------------------------------------------
after chorus ( listen to figure out strumming)
e|---------------------------------------------------------------------------
B|---------------------------------------------------------------------------
G|-9--11-13--14--------------------------------------------------------------
D|-x--x---x---x--------------------------------------------------------------
A|-7--9--11--12--------------------------------------------------------------
E|---------------------------------------------------------------------------
interlude ( palm mute ) strumming not shown
e|---------------------------------------------------------------------------
B|---------------------------------------------------------------------------
G|---------------------------------------------------------------------------
D|-9-------------------------------------------------------------------------
A|-7-9-11-7------------------------------------------------------------------
E|---7-9--5------------------------------------------------------------------
end: play until it fades out ( strum )
e|---------------------------------------------------------------------------
B|---------------------------------------------------------------------------
G|---------------------------------------------------------------------------
D|-9-------------------------------------------------------------------------
A|-7-9-117-------------------------------------------------------------------
E|---7-9-5-------------------------------------------------------------------

and thats it. enjoy
Comments