Blink 182 - Action Chords & Tabs

 

Action Chords & Tabs

Blink 182 Chords & Tabs

Version: 5 Type: Tab 0 ratings
1 star 2 stars 3 stars 4 stars 5 stars
comments

Action Tab

Blink 182 - Action
Tabbed by TJF (TJF@TJFweb.com)
for Electric Guitar

For more Punk Rock / J-Rock tabs, please visit http://www.TJFweb.com

Intro:
E|--------------------|
B|--------------------|
D|-11/9-99---9/13-----|
G|-x--x-xx---x-x------|
A|-9-/7-77-2-7/11-----|
E|---------0----------|

Buildup to verse:
E|------------------|
B|------------------|
D|-9-11-13-14-------|
G|-x-x--x--x--------|
A|-7-9--11-12-------|
E|------------------|
[ Tab from: http://www.guitartabs.cc/tabs/b/blink_182/action_tab_ver_5.html ]
Verse:
E|--------------------|
B|--------------------|
D|-11/9-99---9/13-----|
G|-x--x-xx---x-x------|
A|-9-/7-77-2-7/11-----|
E|---------0----------|
Repeat as many times as necessary

Buildup to chorus:
E|---------------------|
B|---------------------|
D|---------------------|
G|---6-6----4444/9999--|
A|-77-7-777-2222/7777--|
E|---------------------|
PM ........ .... ....
Repeat three times but finish on B5 on the third time.

Chorus:
E|------------------|
B|------------------|
D|---4-6-2----------|
G|-2-4-6-2----------|
A|-2-2-4-0----------|
E|-0----------------|
Just play the chorus until it fades out...

NOTE: Actual strumming not shown, but it is easy enough to work out.
Comments