Blink 182 - Action Chords & Tabs

 

Action Chords & Tabs

Blink 182 Chords & Tabs

Version: 4 Type: Tab 0 ratings
1 star 2 stars 3 stars 4 stars 5 stars
comments

Action Tab

Artist: Blink 182
Song Title: Action
Album: Use Your Erection I & II

Intro/Verse
e-------------------------------
B-------------------------------
G--11/9-9-9-9-------9-9-9/11-9--
D--x--x-x-x-x-------x-x-x-x--x--
A--9-/7-7-7-7-7-7-7-7-7-7/9--7--
E-------------0-0-0-------------

Chorus
e----------------
B----------------
G----------------
D--2----------2--
A--2----------2--
E--0----------0--

Bildup To Verse
e-------------------------------------------
B-------------------------------------------
G--9-9-9-9-9-9-9-9-11-11-11-11-11-11-11-11--
D--x-x-x-x-x-x-x-x-x--x--x--x--x--x--x--x---
A--7-7-7-7-7-7-7-7-9--9--9--9--9--9--9--9---
E-------------------------------------------
[ Tab from: http://www.guitartabs.cc/tabs/b/blink_182/action_tab_ver_4.html ]
e---------------------------------------------------
B---------------------------------------------------
G--13-13-13-13-13-13-13-13-14-14-14-14-14-14-14-14--
D--x--x--x--x--x--x--x--x--x--x--x--x--x--x--x--x---
A--11-11-11-11-11-11-11-11-12-12-12-12-12-12-12-12--
E---------------------------------------------------

Interlude
e-------------------------------------------------------------------
B-------------------------------------------------------------------
G-------------------------------------------------------------------
D--9-9-9-9-9-9-9-9-----------------6-6-6-6-6-6-6-6------------------
A--7-7-7-7-7-7-7-7-9-9-9-9-9-9-9-9-4-4-4-4-4-4-4-4-7-7-7-7-7-7-7-7--
E------------------7-7-7-7-7-7-7-7-----------------5-5-5-5-5-5-5-5--

Outro
e-------------------------------------------------------------------
B-------------------------------------------------------------------
G--9-9-9-9-9-9-9-9-----------------6-6-6-6-6-6-6-6------------------
D--9-9-9-9-9-9-9-9-9-9-9-9-9-9-9-9-6-6-6-6-6-6-6-6-7-7-7-7-7-7-7-7--
A--7-7-7-7-7-7-7-7-9-9-9-9-9-9-9-9-4-4-4-4-4-4-4-4-7-7-7-7-7-7-7-7--
E------------------7-7-7-7-7-7-7-7-----------------5-5-5-5-5-5-5-5--
Comments