Blink 182 - Action Chords & Tabs

 

Action Chords & Tabs

Blink 182 Chords & Tabs

Version: 1 Type: Tab 0 ratings
1 star 2 stars 3 stars 4 stars 5 stars
comments

Action Tab

I messed up last time. It's really

Action
                              by Blink 182

3-------------8-------------------------------------
4---9-------9-6-------------------------------------
5---7--X5---7---------------------------------------
6---------0-----------------------------------------  X10
[ Tab from: http://www.guitartabs.cc/tabs/b/blink_182/action_tab.html ]
4---9------11-------13------14----------------------------
5---7--X8---9--X8---11--X8--12--X8------------------------

3--------------8------------------------------------
4---9-------7--6------------------------------------
5---7--X5---5---------------------------------------
6---------0----------------------------------------- X12

4---9-----------------------------------------------
5---7-X8--9-----11------7---------------------------
6---------7--X8--9--X8--5--X8-----------------------  X12
Comments