Blink 182 - Action Chords & Tabs

 

Action Chords & Tabs

Blink 182 Chords & Tabs

Version: 3 Type: Bass Tab 0 ratings
1 star 2 stars 3 stars 4 stars 5 stars
comments

Action Bass Tab

Artist - Blink 182
Title - Action
Album - Madden 2004 and the self-titled release coming out November 18th, 2003! 
Standard Tuning
Tabbed By: Marco - MPSfender182@yahoo.com

Intro - Guitar and Drums only

Verse - Comes in at 0:11  Optional* see note at bottom 
G-------------------------   		G-------------------------        
D-------------------------  x8    OR    D-------------6-6---------  x8     
A-------------------------              A--7777-7-7--7------------
E--0000-0-0--04-4---------		E------------------------- 

Chorus1 - Comes in at 0:33
G----------------------------------------------------------      
D----9---9-7---------------------6---6-4-------------------  x2
A--7---7-----7-----9---9-7-----4---4-----4-----7---7-5-----
E----------------7---7-----7-----------------5---5-----5---

Guitar Break - No Bass

Verse - Dont play first two lines - Come in at 0:55 - Optional*
G-------------------------   		G-------------------------        
D-------------------------  x6    OR    D-------------6-6---------  x6     
A-------------------------              A--7777-7-7--7------------
E--0000-0-0--04-4---------		E------------------------- 

Chorus Strum#1 - Comes in at 1:12
G----------------------------------------------------------      
D----9---9-7---------------------6---6-4-------------------  x2
A--7---7-----7-----9---9-7-----4---4-----4-----7---7-5-----
E----------------7---7-----7-----------------5---5-----5---

Chorus - Drums only 

Bridge - 1st part drums only - 2nd part guitar palm-muted, optional bass
Comes in at 1:45 - Not too hard
G--------------------------------------------     
D--------------------------------------------  x1
A---77777777--22222222--44444444-------------
E---------------------------------55555555---

G--------------------------------------------     
D--------------------------------------------  x1
A---77777777--22222222--44444444-------------
E---------------------------------5----------

Chorus Strum#2 - Comes in at 1:56 - Same as Bridge just strum harder
G--------------------------------------------     
D--------------------------------------------  x8
A---77777777--22222222--44444444-------------
E---------------------------------55555555---

G--------------------------------------------     
D--------------------------------------------  x1
A---77777777--22222222--4--------------------
E--------------------------------------------
Slowly fade out to the A-4  Listen to the song to get it! 

Intro-Guitar only
Verse
Chorus
Small Break
Verse
Chorus
Break
Bridge
Chorus 
[ Tab from: http://www.guitartabs.cc/tabs/b/blink_182/action_btab_ver_3.html ]
*With the verse, there may or may not be any bass, because its hard to tell with
the version I have, but to get a fuller sound I would recommend bass also plays
the verse along with everybody else. 

Lyrics 
I got to regret right now (I'm feeling this)
The air is so cold and null (I'm feeling this)
Let me go in her room (I'm feeling this)
I love all the things you do (I'm feeling this)
Show me the way to bed (I'm feeling this)
Show me the way you move (I'm feeling this)
How can you be sucha blur (I'm feeling this)
I love all the things you do (I'm feeling this)

Fate fell short this time 
Your smile fades in the summer 
Place your hand in mine 
I'll leave when I wanna

Where do we go from here
Turn all the lights down now 
Smiling from ear to ear (I'm feeling this)
My breathing has got too loud (I'm feeling this)
Show me the bedroom floor (I'm feeling this)
Show me the bathroom mirror (I'm feeling this)
Were taking this way too slow (I'm feeling this)
Take me away from here (I'm feeling this)

Fate fell short this time 
Your smile fades in the summer
Place your hand in mine 
I'll leave when I wanna

Fate fell short this time 
Your smile fades in the summer
Place your hand in mine 
I'll leave when I wanna

This place was never the same again after you came and went 
How can you say you meant anything different 
To anyone standing alone on the street 
With a cigarette on the first night we met 

Look to the past and remember her smile
And maybe tonight I can breathe for awhile
I'm not in the seat I think I'm falling asleep
But then all that it needs is I'll always be dreaming of you

Fate fell short this time 
Your smile fades in the summer
Place your hand in mine 
I'll leave when I wanna

Fate fell short this time (Fate fell short this time)
Your smile fades in the summer (Your smile fades in the summer)
Place your hand in mine (Place your hand in mine)
I'll leave when I wanna (I'll leave when I wanna)

Fate fell short this time (Fate fell short this time)
Your smile fades in the summer (Your smile fades in the summer) (So lost in this illusion)
Place your hand in mine (Place your hand in mine)
I'll leave when I wanna (I'll leave when I wanna) (So lost in this illusion)

Fate fell short this time (Fate fell short this time) (I'll be alone, you'll be left)
Your smile fades in the summer (Your smile fades in the summer) (So lost in this illusion)
Place your hand in mine (Place your hand in mine) (I'll be alone, you'll be left)
I'll leave when I wanna (I'll leave when I wanna) (So lost in this illusion)

Fate fell short this time (I'll be alone, you'll be left)
Your smile fades in the summer (So lost in this illusion)
Place your hand in mine (I'll be alone, you'll be left)
I'll leave when I wanna (So lost in this illusion)


Special thanks to nimrodbassist for providing the tabs to the chorus!
Comments