Blink 182 - A New Hope Chords & Tabs

 

A New Hope Chords & Tabs

Blink 182 Chords & Tabs

Version: 7 Type: Tab 0 ratings
1 star 2 stars 3 stars 4 stars 5 stars
comments

A New Hope Tab

   
----------------------------------------------------------
		A New Hope - Blink 182
----------------------------------------------------------

Tabbed By: J.D. Norwood (j_d_norwood12@hotmail.com)


			Intro 1
e|--------------------------------------------------------|
B|--------------------------------------------------------|
G|--------------------------------------------------------|
D|-5-55555-5-55555-5-55555-4-44444------------------------|
A|---------------------------------3-33333-3-33333-5-55555|
E|--------------------------------------------------------|

e|---------|
B|---------|
G|---------|
D|---------|
A|-5-55555-|
E|---------|
			
			Intro 2
e|--------------------------------------------------------|
B|--------------------------------------------------------|
G|-777777777777777-66666----------------------------------|
D|-555555555555555-44444-5555555555-7777777777------------|
A|-----------------------3333333333-5555555555------------|
E|--------------------------------------------------------|

			Verse
e|--------------------------------------------------------|
B|--------------------------------------------------------|
G|--------------------------------------------------------|
D|---------55-7---------55-7---------55-7-5-55555-4-44444-|
A|-5-55555-33-5-5-55555-33-5-2-22222-33-5-----------------|
E|-3-33333------3-33333------o-00000----------------------|

Pick scratch inbetween the verse and the chorus

			Chorus
e|---------------------------------------------------------|
B|---------------------------------------------------------|
G|---------------------------------------------------------|
D|-----------5555555555------------------------------------|
A|5555555555-3333333333-55-555-7-55-555-2-55-555-7-55-555-4|
E|3333333333------------33-333-5-33-333-2-33-333-5-33-333-2|
[ Tab from: http://www.guitartabs.cc/tabs/b/blink_182/a_new_hope_tab_ver_7.html ]
e|-------------------------|
B|-------------------------|
G|-------------------------|
D|------------5555555555---|
A|-5555555555-3333333333---|
E|-3333333333--------------|

			Bass Solo
G|--------------------------------------------------------|
D|-5-55555-5-55555-5-55555-4-44444------------------------|
A|---------------------------------3-33333-3-33333-5-55555|
E|--------------------------------------------------------|

			Solo
e|--------------------------------------------------------|
B|--------------------------------------------------------|
G|-----------4h7-4h7-4h7-4-5h4-5h4-5h4-4------------------|
D|-7777777------------------------------------------------|
A|-5555555------------------------------------------------|
E|--------------------------------------------------------|
  <--pm---> on 3rd and 4th time guitar 2 plays intro 2 with
the solo at the same time

			Thing after solo
e|--------------------------------------------------------|
B|--------------------------------------------------------|
G|--------------------------------------------------------|
D|----------77777777-55555555-9999-7777-------------------|
A|-55555555-55555555-33333333-7777-5555-------------------|
E|-33333333-----------------------------------------------|
on forth time dont't play D|7 and only play D|9 once
			  A|5		    A|7

			Outro
e|--------------------------------------------------------|
B|--------------------------------------------------------|
G|--------------------------------------------------------|
D|------------5555555555----------------------------------|
A|-5555555555-3333333333-5555555555-7777777777-5555555555-|
E|-3333333333------------3333333333-5555555555-3333333333-|

e|--------|
B|--------|
G|--------|
D|-5-7----|
A|-3-5-5--|
E|-----3--|

	Order
Intro 1 x2
Intro 2 x2
Verse x2
Chorus x1
Intro 1 x2
Verse x2
Chorus x1
Bass solo x2
Solo x4
Thing after solo x4
Chorus x2
Outro x1
==========================================================
Comments