Blink 182 - A New Hope Chords & Tabs

 

A New Hope Chords & Tabs

Blink 182 Chords & Tabs

Version: 4 Type: Tab 0 ratings
1 star 2 stars 3 stars 4 stars 5 stars
comments

A New Hope Tab

   
Hey, I'm 13 and I've been playing for like a year and this my ear-transcribtion of A NEW HOPE

INTRO (you can figure the speed and stuff)background G,C,D
e|--------------------------------------
B|--------------------------------------
G|-12------11-------------------11------
D|-X--x18--X--x6--10-----12-----12------
A|-10------10-----X--x6--X--x6--x---x6--
E|----------------8------10-----10------

Verse play three times and then play (on 3rd play E,C,D
e|-------------|-------------------------------
B|-------------|-------------------------------
G|--------5-77-|--12-------11------------------
D|-555555-5-77-|--X--x6----X---x6--------------
A|-555555-3-55-|--10-------10------------------
E|-333333------|-------------------------------

PLay Verse again
[ Tab from: http://www.guitartabs.cc/tabs/b/blink_182/a_new_hope_tab_ver_4.html ]
Chorus 
e|-----------------------------------------------------
B|-----------------------------------------------------
G|-222222--555555--------------------------------------
D|-222222--555555--------------------------------------
A|-000000--333333--------------------------------------
E|-----------------33333 -5--33333--2-33333-5-33333-2--
                  PM---------------------------------
                   
e|-------------------------------------
B|-------------------------------------
G|-222222--555555--777777--------------
D|-222222--555555--777777--------------
A|-000000--333333--555555--------------
E|-------------------------------------


PLAY INTRO

PLAY VERSE

PLAY CHORUS

INTERLUDE (background G,A,C,D) play 4 times
e|----------------------------------------
B|------------3^0-----3^0-------3^0------0
G|--------0 0-----0 0------0 0-------0-0--
D|-55555----------------------------------
A|-55555----------------------------------
E|-33333----------------------------------  
  PM----

e|-----------------------------------------
B|------1^0 -------1^0-------1^0--------0--
G|-0 0 ------0 0 -------0 0 ------0 0------
D|-----------------------------------------
A|-----------------------------------------
E|-----------------------------------------

INTERLUDE pt.2
e|-----------------------------------------------------
B|-----------------------------------------------------
G|------7-7-7--4-4--7-7-7-7-7-5-5-4-4-4-5-5-9-9-9-7-7-7
D|-5-5--X-X-x--X-X--X-X-X-X-X-x-X-X-X-X-X-X-X-X-X-X-X-X
A|-X-X--5-5-5--2-2--5-5-5-5-5-3-3-2-2-2-3-3-7-7-7-5-5-5
E|-3-3-------------------------------------------------

e|-----------------------------------
B|-----------------------------------
G|-55555-----------------------------
D|-XXXXX-----------------------------
A|-33333-----------------------------
E|-----------------------------------

END ON PLAYING CHORUS THING
Comments