Blink 182 - 78 People Chords & Tabs

 

78 People Chords & Tabs

Blink 182 Chords & Tabs

Version: 1 Type: Tab 0 ratings
1 star 2 stars 3 stars 4 stars 5 stars
comments

78 People Tab

------2----3----7---0
--4-----6-----8------
1----0---------------
---------------------
---------------------
---------------------
there are so many people here!!! how many are here?

chorus:
[ Tab from: http://www.guitartabs.cc/tabs/b/blink_182/78_people_tab.html ]
---------------------
---------------------
---------------------
5-5-5-5-5-5-5-5-5-5-5
4-4-4-4-4-4-4-4-4-4-4
4-4-4-4-4-4-4-4-4-4-4


solo:

---------------------
1-1-1-1-1-1-1-1-1-1-1
2-2-2-2-2-2-2-2-2-2-2
3-3-3-3-3-3-3-3-3-3-3
4-4-4-4-4-4-4-4-4-4-4
9-9-9-9-9-9-9-9-9-9-9
Comments