Blink 182 - 21 Days Chords & Tabs

 

21 Days Chords & Tabs

Blink 182 Chords & Tabs

Version: 4 Type: Tab 0 ratings
1 star 2 stars 3 stars 4 stars 5 stars
comments

21 Days Tab

tabber: jurre ( skateboard_rules_1@hotmail.com for any corrections and questions about this tab. )

this is the ending of the number:

1:-----------------------------------------------------------|
2:-----------------------------------------------------------|
3:--7--9--11--12--11--9-----7--9--11--9--7-7-----------------|
4:-----------------------------------------------------------|  x2
5:-----------------------------------------------------------|
6:-----------------------------------------------------------|
[ Tab from: http://www.guitartabs.cc/tabs/b/blink_182/21_days_tab_ver_4.html ]
Ending 2:
1:-----------------------------------------------------------|
2:-----------------------------------------------------------|
3:--7-7-7-7--9-9-9--11-11--12-12---11-11--9-9---------------|
4:-----------------------------------------------------------|
5:--5-5-5-5--7-7-7---9--9--10-10---9--9---7-7---------------|
6:-----------------------------------------------------------|

1:-----------------------------------------------------------|
2:-----------------------------------------------------------|
3:--7-7-7-7--9-9-9--11-11---9-9---7-7----------------------|
4:-----------------------------------------------------------|
5:--5-5-5-5--7-7-7---9--9---7-7--- 5--5 ---------------------|
6:-----------------------------------------------------------|
Comments