Blink 182 - 13 Miles Chords & Tabs

 

13 Miles Chords & Tabs

Blink 182 Chords & Tabs

Version: 2 Type: Tab 0 ratings
1 star 2 stars 3 stars 4 stars 5 stars
comments

13 Miles Tab

-----------------------------------------------------------------------------
			     13 Miles - Blink 182
-----------------------------------------------------------------------------
Tabbed by: KeLLaN
[ Tab from: http://www.guitartabs.cc/tabs/b/blink_182/13_miles_tab_ver_2.html ]
This song is only played live so try downloading it from somewhere
e|----------------------------------------------------------------|
B|----------------------------------------------------------------|
G|------------------7--7-7--7-7-7---5--5-5--5-5-5-5--5-5--5-5-5---|
D|---5--5-5--5-5-5--7--7-7--7-7-7---5--5-5--5-5-5-5--5-5--5-5-5---|
A|---5--5-5--5-5-5--5--5-5--5-5-5---3--3-3--3-3-3-3--3-3--3-3-3---|
E|---3--3-3--3-3-3------------------------------------------------|

13 miles down the road lives a young boy
he's got jet black hair and blue green eyes and hes mine
and every now and then he and i would sit together on the porch
and i'd take off his pants and i'd f*ck him from behind

and i love him for his heart and soul
and i love his wrinkled scrotum too
so if u see us passing by on some dreary rainy day
take a look at the young boy and his naked
asshole
Comments