Blink - M+ms Chords & Tabs

 

M+ms Chords & Tabs

Blink Chords & Tabs

Version: 1 Type: Tab 0 ratings
1 star 2 stars 3 stars 4 stars 5 stars
comments

M+ms Tab

   
#----------------------------------PLEASE NOTE---------------------------------#
#This file is the author's own work and represents their interpretation of the #
#song. You may only use this file for private study, scholarship, or research. #
#------------------------------------------------------------------------------##
#

From amagnan@bonita.cerf.fred.org Sun Mar 17 21:01:44 1996
Date: Sun, 17 Mar 96 09:48 pst
Subject: TAB: m+ms  by: blink
[ Tab from: http://www.guitartabs.cc/tabs/b/blink/mms_tab.html ]
    
this might be confusing, think of the bassline also as a rhythm 
guitar riff and listen to the song while you play it so you
don't get TOO confused...
 
    Here's an attempt at that riff  (riff 1)                           
E-|-0-0-0-4-0-0-5-0-0-7-5-4-5-0---0-0-0-2-0-0-4-0-0-5-4-2-0--------------
B-|----------------------------------------------------------------------
G-|----------------------------------------------------------------------
D-|----------------------------------------------------------------------
A-|-------------------------------------------------------|
E-|----------------------------------------------------------------------
                                                                         
     
    Here's the first part   of the verse (riff 2) you might wanna use pwr
crds 
E-|----------------------------------------------------------------------
B-|----------------------------------------------------------------------
G-|----------------------------------------------------------------------
D-|---9---9---9---9---9---9---9---9---9---9---9---9---9---9---9----------
A-|-7---7---7---7---9---9---9---9---11--11--11--11--11--11--11-----------
E-|----------------------------------------------------------------------
                                                                         
     
    And the 2nd part (riff 3) hit the power chord then play the riff     
     
E-|----------------------------------------------------------------------
B-|----------------------------------------------------------------------
G----------------9-------------------------------------------------------
D-|-9-----------------9--------------------------------------------------
A-|-7----9-7-9-7-6-7--7---9-7-9-7-6-(go-right-into-chorus)---------------
E-|----------------------------------------------------------------------
                                                                         
     
intro: riff 1
Verse1:
riff 2 over this bassline:
E                 B              C#      A
You and I should get away for a while
E                 B              C#      A
I just wanna be alone with your smile
play riff 2 here and same bassline
 
E                    B                   C#        A
Grab some candy and cigarettes and we'll get in my car
E                    B           C#             A
We'll blast the stereo and we'll drive to Madagascar
 
Chorus:
         F#        A         E               B
Cuz when I'm with you there's nothing I wouldn't do
F#    A       E         B
I just wanna be yer only one 
F#            A       E                   B
I'm grasping at straws thinking back to what i saw
F#             A       E                   B
that night on the floor when we were all alone
 
(play riff 1)
now, same stuff... different words
(riff2 over bassline)
My love life was getting so bland
There are only so many ways i can make love with my hand
(riff 3 over same bassline)
Sometimes it makes me want to laugh
Sometimes i wanna take my toaster in the bath
 

interlude: EBC#A...E
(riff one over bassline that goes over final verse)
I think the first part of the verse is wron, try following the vocal
melody while using the 3rd lowest octave of E later

 ---------------- 32.39.28N, 117.01.45W 
This email was written by Mushroom Head, Blink's un-official
email cool guy (soon to be official)...
May the force be with you...



Comments