Blindspott - Suffocate Chords & Tabs

 

Suffocate Chords & Tabs

Blindspott Chords & Tabs

Version: 1 Type: Tab 0 ratings
1 star 2 stars 3 stars 4 stars 5 stars
comments

Suffocate Tab

Author/Band:Blindspott
Song:Mind Suffocate
Album:Blindspott
Tabbed by:KoRotz
Tuning:DADGBE (low to high)
Contact: epat_skateboarding@hotmail.com

Key
<> = harmonic
p  = pull of
h  = hammer on
*  = palm mute
x  = mute
/  = slide up
\  = slide down
^  = bend

Intro w/distortion 4x
-----------------|
-----------------|
-----------------|
--0-000-8-88-5---|
--0-000-8-88-5---|
--0-000-8-88-5---|

Fill 1x
---------------------------------------------------------------|
---------------------------------------------------------------|
---------------------------------------------------------------|
--8-8-8-0-0-0-3-3-3-------------8-8-8-0-0-0-3-3-3-3-3-3-3-3-3--|
--------------------1-1-1-1-1-1-------------------1-1-1-1-1-1--|
---------------------------------------------------------------|
  * * * * * * * * * * * * * * * * * * * * * * * *
Verse 9x
----------------|
----------------|
----------------|
----------------|
--7-0-3-8-8-8---|
--7-0-3-8-8-8---|

Pre-chorus w/clean tone & echo 1x
--------------------|
--------------------|
--9h10-9--5----2----|
--7-------3----0----|
--------------------|
--------------------|

Chorus w/distortion 8x
-----------------|
-----------------|
-----------------|
--0-000-8-88-5---|
--0-000-8-88-5---|
--0-000-8-88-5---|

Fill w/distortion 1x
---------------------------------|
---------------------------------|
---------------------------------|
--8-8-8-0-0-0-3-3-3-3-3-3-3-3-3--|
--------------------1-1-1-1-1-1--|
---------------------------------|

Verse 9x
----------------|
----------------|
----------------|
----------------|
--7-0-3-8-8-8---|
--7-0-3-8-8-8---|
[ Tab from: http://www.guitartabs.cc/tabs/b/blindspott/suffocate_tab.html ]
Pre-chorus w/clean tone & echo 8x
-----------------------|
-----------------------|
------9------5---------|
----7------3-------7---|
--5------1-------------|
-----------------5-----|

Chorus w/distortion 8x
-----------------|------|
-----------------|------|
-----------------|------|
--0-000-8-88-5---|--0---|
--0-000-8-88-5---|--0---|
--0-000-8-88-5---|--0---|1x

Bridge w/clean tone & echo
--------------------------------------------------------------|
---10------------10------------10--------------10-------------|
------7-10---7-0----7-10-10/12-----7-10----7-0----7-10-10/12--|
-----------8-----------------------------8--------------------|
--------------------------------------------------------------|
--------------------------------------------------------------|5x

Breakdown 4x     Fill 1x
-----------------|-------------------------------|	
-----------------|-------------------------------|
-----------------|-------------------------------|
--0--8--10--8----|--0-10-xx-0-10-xx-0-8-xx-0-8---|
--0--8--10--8----|--0-10-xx-0-10-xx-0-8-xx-0-8---|
--0--8--10--8----|--0-10-xx-0-10-xx-0-8-xx-0-8---|

Chorus w/distortion 8x
-----------------|
-----------------|
-----------------|
--0-000-8-88-5---|
--0-000-8-88-5---|
--0-000-8-88-5---|

End Riff 1x
-------|
-------|
-------|
--0----|
--0----|
--0----|

Lyrics

I dislike your crib
I DISLIKE YOUR CRIB!
And I took too much of you 
DONT LIKE MUCH OF YOU!

IT'S NOT WHAT I WANT
IT'S NOT WHAT I ***IN WANT
HATE TO WANT HATE, SUFFOCATE
WANT HATE, SUFFOCATE
WATCH OUT!

I love the stain of fear
FEAR ON YOUR FACE
I love the scent of your
SCENT OF YOUR DISGRACE!

YOU KNOW WHAT I WANT
YOU KNOW WHAT I ***IN WANT TO 
WANT HATE, SUFFOCATE
WANT HATE, SUFFOCATE
WANT HATE

And I'll hear the echos of fear
It takes away everything I reveal
And still you chill

I, I 
WANT HATE

YOU KNOW WHAT I WANT
YOU KNOW WHAT I ***IN WANT HATE 
SUFFOCATE (SUFFOCATE)
WANT HATE
SUFFOCATE (SUFFOCATE)
WANT HATE!

That's it!
Shoutout to MuNkY & mcud
Comments