Blindspott - Room To Breath Chords & Tabs

 

Room To Breath Chords & Tabs

Blindspott Chords & Tabs

Version: 1 Type: Tab 0 ratings
1 star 2 stars 3 stars 4 stars 5 stars
comments

Room To Breath Tab

   
Author/Band:Blindspott
Song:Room To Breathe
Album:Blindspott
Tuning:Drop D (D A D G B E) Low to High
Tabbed by: KoRotz
Contact: epat_skateboarding@hotmail.com

Key
<> = harmonic
p  = pull of
h  = hammer on
*  = palm mute
x  = mute
/  = slide up
\  = slide down
^  = bend

Intro w/distortion                             Fill
---------------------------------------------------|-----------|
---------------------------------------------------|-----------|
--------------------------------------55555-77777--|-10--12----|
--88888888888888-10-10-3-3-5555-6-555-33333-55555--|-x---x-----|
--66666666666666-10-10-3-3-5555-6-555-33333-55555--|-8---10----|
--66666666666666-10-10-3-3-5555-6-555-33333-55555--|-----------|

Verse - clean tone/reverb (0:18)
-----------------------------------------------------|
-----------------------------------------------------|
-----------------------------------------------------|
------9-9-7-7-------------------9-9-7-7--------------|
--7-7---------10-9-9h10p9-----7---------10-9-9h10p9--|
--------------------------7h9------------------------|

Pre - chorus with distortion (0:49)
----------------------------------------------------------|
----------------------------------------------------------|
----------------------------------------------------------|
------9-9p7-7-7------------------9-9p7-7-7----------------|
--7-7-----------10-9-9h10p9--7-7-----------10-9-9h10p9-0--|
-------------------------------------------------------0--|

Chorus - Distortion (1:17)
------------------------------|
------------------------------|
------------------------5--7--|
--8---10-3---5---6--5---3--5--|
--6---10-3---5---6--5---3--5--|
--6---10-3---5---6--5---3--5--|
"would it make you right if I..."

Verse (1:25)
-----------------------------------------------------|
-----------------------------------------------------|
-----------------------------------------------------|
------9-9-7-7-------------------9-9-7-7--------------|
--7-7---------10-9-9h10p9-----7---------10-9-9h10p9--|
--------------------------7h9------------------------|

Pre - chorus (1:56)
----------------------------------------------------------|
----------------------------------------------------------|
----------------------------------------------------------|
------9-9p7-7-7------------------9-9p7-7-7----------------|
--7-7-----------10-9-9h10p9--7-7-----------10-9-9h10p9-0--|
-------------------------------------------------------0--|
[ Tab from: http://www.guitartabs.cc/tabs/b/blindspott/room_to_breath_tab.html ]
Chorus - Distortion (2:14)    Fill
------------------------------|----------|
------------------------------|----------|
------------------------5--7--|----------|
--8---10-3---5---6--5---3--5--|----8-----|
--6---10-3---5---6--5---3--5--|----6-----|
--6---10-3---5---6--5---3--5--|----6-----|

Interlude - w/very light distortion (2:36)
------------------------------------------------------------------3-------|
------------------------------------------------------4-3-----------3-----|
------------------------------------------5---------3-----3-----------3---|
--------12-------8------12--------8----8-----8-6-5----------5-------------|
-----10-------6------10--------6----6-------------------------------------|
--10-------6------10--------6---------------------------------------------|

-------------------------------------3-----|
----------------------------4-3------------|
--------------------------3-----3----------|
------8---6-5h6p6---6---5---------5--------|
----6---6---------6---6--------------------|
--6----------------------------------------|

Fill Strum w/distortion (3:08)
-----------------|
------8-------8--|
------7-------7--|
--8---5---8---5--|
--6---5---6---5--|
--6---5---6---5--|
"Aaaaaaaahhhhhhhhhh"

Chorus 2x w/distortion
------------------------------|
------------------------------|
------------------------5--7--|
--8---10-3---5---6--5---3--5--|
--6---10-3---5---6--5---3--5--|
--6---10-3---5---6--5---3--5--|

Ending
e---------|
b---------|
g---------|
d-8-------|
a-6-------|
D-6-------|

That's it!
Shout out to MuNkY, mcud, Ben and Wayne

Lyrics

Does it upset you
To see where I lay
And tell me does it make you sad
‘Cos i am weak, you will pray
And tell me does it back you up
*** your mind
And leave you feeling unstable, again

Give me, room to breathe
Just a little long, room to breathe

Would it make you sad if I
Stepped back and laughed
as I made you sad
As I made you CHOKE!
Would it make you wanna DIE!

Would it make you Right if I
Sat back and laughed
as I made you sad
As I made you CHOKE!
Would it make you wanna DIE!

And there’s no excuse
For the games that you play
And tell me why there’s no escape
From the things that you say
And tell me does it stay inside
*** your mind
And leave you feeling violated, again

Give me, room to breathe
Just a little, room to breathe

ROOM TO BREATHE!

Would it make you sad if I
Stepped back and laughed
as I made you sad
As I made you CHOKE!
Would it make you wanna DIE!

Would it make you Right if I
Stepped back and laughed
as I made you sad
As I made you CHOKE!
Would it make you wanna DIE!

Does it make you
Make you sad
DOES IT MAKE YOU!
MAKE YOU SAD
DOES IT MAKE YOU SAD!

Would it make you sad if I
Stepped back and laughed
as I made you sad
As I MADE YOU CHOKE!
Would it make you wanna DIE!

Would it make you Right if I
Stepped back and laughed
as I made you sad
As I MADE YOU CHOKE!
Would it make you wanna DIE!
Comments