Blindspott - Pmf Chords & Tabs

 

Pmf Chords & Tabs

Blindspott Chords & Tabs

Version: 1 Type: Tab 0 ratings
1 star 2 stars 3 stars 4 stars 5 stars
comments

Pmf Tab

Author/Band:Blindspott
Song:PMF
Album:Blindspott
Tabbed by:KoRotz
Tuning:ADADGBE (low to high)
Contact: epat_skateboarding@hotmail.com

Key
<> = harmonic
p  = pull of
h  = hammer on
*  = palm mute
x  = mute
/  = slide up
\  = slide down
^  = bend

For all you guys that dont have a 7 string (me)lol just tune the top string down
to "A" and it'll sound perfect!
enjoy!

Intro 2x
-------------------------------------------|
-------------------------------------------|
-------------------------------------------|
-------------------------------------------|
--2-2--2-2--2-2--2-2--6-6--6-6--6-6--6-6---|
--0-0--0-0--0-0--0-0--4-4--4-4--4-4--4-4---|
--0-0--0-0--0-0--0-0--4-4--4-4--4-4--4-4---|
[ Tab from: http://www.guitartabs.cc/tabs/b/blindspott/pmf_tab.html ]
Bridge 4x
--------------------------------------------------|
--------------------------------------------------|
--------------------------------------------------|
--------------------------------------------------|
--------------------------------------------------|
--7-99-7-99-77-99-7-99-7--6-88-6-88-66-88-6-88-6--|
--7-77-7-77-77-77-7-77-7--6-66-6-66-66-66-6-66-6--|

Breakdown 8x
--------------------|
--------------------|
--------------------|
--------------------|
--------------------|
--------------------|
--0-7-2-0-7-2-0-2---|
  * * * * * * * *

Ending to fade
------------------|
------------------|
------------------|
------------------|
--0--0h2-0h2-00---|
--0--0h2-0h2-00---|
--0--0h2-0h2-00---|

that's it
shoutout to mcud and MuNkY!
Comments