Blindspott - Mind Dependency Chords & Tabs

 

Mind Dependency Chords & Tabs

Blindspott Chords & Tabs

Version: 1 Type: Tab 0 ratings
1 star 2 stars 3 stars 4 stars 5 stars
comments

Mind Dependency Tab

Author/Band:Blindspott
Song:Mind Dependancey
Album:Blindspott
Tabbed by:KoRotz
Tuning:DADGBE (low to high)
Contact: epat_skateboarding@hotmail.com

Key
<> = harmonic
p  = pull of
h  = hammer on
*  = palm mute
x  = mute
/  = slide up
\  = slide down
^  = bend

note: the gaps for the verses are not acurately spaced 
I just tried to fit it on one line thats all

Intro -Some kind of Orchestra beat on Karl's turntables

Main Riff w/distortion  Fill
-----------------------|------------|
-----------------------|------------|
-----------------------|------------|
--------------10-------|------------|
--0-8-7-0-7-0-10-------|--0-0--0-0--|
--0-8-7-0-7-0-10-------|--0-0--0-0--|

Verse w/delay
----------------------------------------------------------------------------------------------|
--11p10-11p10-11p10-11p10------------------------------10--------------------------(2x)-------|
--------------------------12-10-12/14-12-10-----/9--10----12-10-12/14--/9-9-9-12p10----/9--/10|
--------------------------------------------12--------------------------------------12--------|
----------------------------------------------------------------------------------------------|
----------------------------------------------------------------------------------------------|

Main Riff w/distortion
-------------------|
-------------------|
-------------------|
--------------10---|
--0-8-7-0-7-0-10---|
--0-8-7-0-7-0-10---|

Chorus w/distortion
---------------------|
---------------------|
---------------------|
--3333333-77779999---|
--3333333-77777777---|
--3333333-77777777---|

-------------------|
-------------------|
-------------------|
--------------10---|
--0-8-7-0-7-0-10---|
--0-8-7-0-7-0-10---|

---------------------|
---------------------|
---------------------|
--3333333-77779999---|
--3333333-77777777---|
--3333333-77777777---|
		     
		     Fill
-------------------|------------|
-------------------|------------|
-------------------|------------|
--------------10---|------------|
--0-8-7-0-7-0-10---|--0-0--0-0--|
--0-8-7-0-7-0-10---|--0-0--0-0--|

Verse w/delay
----------------------------------------------------------------------------------|
--/11-/11-/11-/11-11p10-11p10-11p10-11p10-------------------------/10-10----------|
------------------------------------------12-10-12/14-12-10--------------10-9-----|
------------------------------------------------------------12--------------------|
----------------------------------------------------------------------------------|
----------------------------------------------------------------------------------|

Verse continued...
---------------------------------------------------------------------------|
--10p8-10p8-10p8-10-8-----------------/10-10------------------------10-----|
----------------------10-9-10-9-10-9---------10-10h12p10-9---/9-/10----12--|
---------------------------------------------------------------------------|
---------------------------------------------------------------------------|
---------------------------------------------------------------------------|
[ Tab from: http://www.guitartabs.cc/tabs/b/blindspott/mind_dependency_tab.html ]
Pre-chorus
-------------------|
-------------------|
-------------------|
--------------10---|
--0-8-7-0-7-0-10---|
--0-8-7-0-7-0-10---|

Chorus
---------------------|
---------------------|
---------------------|
--3333333-77779999---|
--3333333-77777777---|
--3333333-77777777---|

-------------------|
-------------------|
-------------------|
--------------10---|
--0-8-7-0-7-0-10---|
--0-8-7-0-7-0-10---|

---------------------|
---------------------|
---------------------|
--3333333-77779999---|
--3333333-77777777---|
--3333333-77777777---|

Bridge w/distortion
------------------------------|
------------------------------|
------------------------------|
------------------------------|
--0-0-0-0--0--0-3-3-3-3-3-3---|
--0-0-0-0--0--0-3-3-3-3-3-3---|

Fill
-------------|----0----|
-------------|----0----|
-------------|----0----|
-------------|----0----|
--0-0-0-0--0-|---------|
--0-0-0-0--0-|---------|

----------------------------|
----------------------------|
----------------------------|
----------------------------|
--0-0-0-0-0-0-3-3-3-3-3-3---|
--0-0-0-0-0-0-3-3-3-3-3-3---|

Breakdown - delay
----------------------------------------------------------------------------------
----------------------------------------------------------------------------------
-----10----10----10-9-10-9-10-9---10-9---10-9-10-9-10-9-10-9-10-9-10-9-10-9-10-9--
--00----00----00----------------12-----12-----------------------------------------
----------------------------------------------------------------------------------
----------------------------------------------------------------------------------
  **    **    **
continued...
-----------------------------------------------------------|
-----------------------------------------------------------|
------10-9----10-9----10-9----10--10-9----10-9----10-9-----|
--0-0------12------12------12----------12------12------12--|
-----------------------------------------------------------|
-----------------------------------------------------------|

Chorus
---------------------|
---------------------|
---------------------|
--3333333-77779999---|
--3333333-77777777---|
--3333333-77777777---|

-------------------|
-------------------|
-------------------|
--------------10---|
--0-8-7-0-7-0-10---|
--0-8-7-0-7-0-10---|

---------------------|
---------------------|
---------------------|
--3333333-77779999---|
--3333333-77777777---|
--3333333-77777777---|

End Riff
		     Fill
-------------------|------------|
-------------------|------------|
-------------------|------------|
--------------10---|------------|
--0-8-7-0-7-0-10---|--0-0--0-0--|
--0-8-7-0-7-0-10---|--0-0--0-0--|

That's it!

Lyircs

You are all part of this now
Someway, somewhere or some how

Your mind dependancy
Is my disability

Inside, you and I are alike
Same face, same soul, know yours and know mine

Your mind dependancy
Is my disability

MY MIND NO, NO, NO!
MY MIND NO, NO, NO!
MY MIND NO, NO, NO!
MY MIND NO, NO, NOWHERE!

Someway, somewhere
Someway, somewhere

Your mind dependancy
Is my disability

NO, NO!
NO!
NO!

Shoutout to mcud & MuNkY!
Comments