Blindside - Yamkela Chords & Tabs

 

Yamkela Chords & Tabs

Blindside Chords & Tabs

Version: 1 Type: Bass Tab 0 ratings
1 star 2 stars 3 stars 4 stars 5 stars
comments

Yamkela Bass Tab

----------------------------------------------------------------------------
                          YAMKELA - BLINDSIDE
----------------------------------------------------------------------------

Intro 2x
G|------------------------------------------------------------------|
D|------------------------------------------------------------------|
A|------------------------------------------------------------------|
E|--2-2-2-2-2-2-2-2-3-3-3-3-3-3-3-3-6-6-6-6-6-6-6-6-5-5-5-5-5-5-5-5|


Then - 2x
G|-----|
D|-----|
A|-----|
E|--1--|

Verse - 4x
G|------------------------------------------------------------------|
D|------------------------------------------------------------------|
A|------------------------------------------------------------------|
E|--2-2-2-2-2-2-2-2-3-3-3-3-3-3-3-3-6-6-6-6-6-6-6-6-5-5-5-5-5-5-5-5|
[ Tab from: http://www.guitartabs.cc/tabs/b/blindside/yamkela_btab.html ]
Chorus - 2x Listen to the rhythm
G|----------------------------------------------------------|
D|----------------------------------------------------------|
A|----------------------------------------------------------|
E|---1---------------1--------------3-3---3-3---3-3---3-3---|

Verse - guitar plays through 1x then repeat 3x

Chorus - 2x
Then play - 3rd time
G|--------------------------------|
D|--------------------------------|
A|--------------------------------|
E|---1--------1---------1---------|


Bridge - 3x                                                               
                                 Last time
G|--------------------------|     |-----|
D|--------------------------|     |-----|
A|--------------------------|     |-----|
E|---0--0--0--0--0-0--0--0--|     |--0--|

Then - 3x
G|--------------------------|
D|--------------------------|
A|--------------------------|
E|---1--1--1--1-1--1--1--1--|

Chorus - 2x
Then play - 3rd time
G|--------------------------------|
D|--------------------------------|
A|--------------------------------|
E|---1--------1---------1---------|


Outro - 4x
G|------------------------|
D|------------------------|
A|------------------------|
E|--1--1--1-1-1--1--1--1-|
Comments