Blindside - Where The Sun Never Dies Chords & Tabs

 

Where The Sun Never Dies Chords & Tabs

Blindside Chords & Tabs

Version: 1 Type: Bass Tab 0 ratings
1 star 2 stars 3 stars 4 stars 5 stars
comments

Where The Sun Never Dies Bass Tab

Artist: BlindSide
Song: Where the Sun Never Dies
Album: About a Burning Fire
Tabbed by: AzraelClaw
Tuning: EADG

Verse
G|---------------------------------------------------->
D|---------------------------------------------------->
A|-44444--4-4-44444-4-4-4-44444---4-4-44444-4-4-4----->
E|---------------------------------------------------->

G|---------------------------------------------------->
D|---------------------------------------------------->
A|---------------------------------------------------->
E|-22222--2-2-22222-2-2-2-55555---5-5-55555-5-5-5----->

G|---------------------------------------------------->
D|---------------------------------------------------->
A|-44444--4-4-44444-4-4-4-44444---4-4-44444----------->
E|---------------------------------------------------->

G|----------------------------------------------------|
D|----------------------------------------------------|
A|----------------------------------------------------|
E|-22222--2-2-22222-2-2-2-55555---5-5-55555-5-5-5-----|

Chorus 1(2x)
G|----------------------------------------------------|
D|----------------------------------------------------|
A|-------------------44444444-------------------------|
E|-44444444-00000000----------00000000----------------|
[ Tab from: http://www.guitartabs.cc/tabs/b/blindside/where_the_sun_never_dies_btab.html ]
Post-Chorus 1
G|----------------------------------------------------|
D|----------------------------------------------------|
A|----------------------------------------------------|
E|-5555-5-5--44444444--5555-5-5-44444444-44444444-----|

Verse

Chorus 2
G|----------------------------------------------------|
D|----------------------------------------------------|
A|-------------------44444444-------------------------|
E|-44444444-00000000----------00000000----------------|

G|----------------------------------------------------|
D|----------------------------------------------------|
A|----------22222222----------------------------------|
E|-44444444----------22222222-00000000----------------|

Post-Chorus 2
G|----------------------------------------------------|
D|----------------------------------------------------|
A|----------------------------------------------------|
E|-5555-5-5--44444444--5555-5-5-44444444--------------|

Bridge(3x)
G|-------------------|
D|-------------------|
A|-------------------|
E|-0-0-0--0-0-00-0-0-|

Order:
Verse
Chorus 1
Post-Chorus 1
Verse
Chorus 2
Post-Chorus 2
Bridge
Post-Chorus 2
Post-Chorus 1
Outro(Really long drum/techno part)

Simple.
A great song by a great band.
My first TAB.
Rate it.

                            Later-
                               AzraelClaw
Comments