Blindside - This Is A Heart Attack Chords & Tabs

 

This Is A Heart Attack Chords & Tabs

Blindside Chords & Tabs

Version: 1 Type: Tab 0 ratings
1 star 2 stars 3 stars 4 stars 5 stars
comments

This Is A Heart Attack Tab

   
-----------------------------------------------------------------------------
                   "THIS IS A HEART ATTACK"    BLINDSIDE
-----------------------------------------------------------------------------

Tabbed by: Jarrod Leathem
Email: wakefield49@gmail.com

Tuning: Drop D (D,A,D,G,B,E)

INTRO / VERSE:

e|--------------------------------------|
B|--1--------1---1---1\0----------------|
G|--2--------2---2---2\1----------------|
D|--------------------------------------|
A|--------------------------------------|
E|--------------------------------------|  :|| x16

1st / 2nd / 3rd CHORUS: (x2)

e|------------------------------------------------------------------|
B|------------------------------------------------------------------|
G|------------------------------------------------------------------|
D|---5/7-7-7-7-7-7-7-7-7-7-7-7--------------------------------------|
A|---5/7-7-7-7-7-7-7-7-7-7-7-7--------------------------------------|
E|---5/7-7-7-7-7-7-7-7-7-7-7-7--------------------------------------| :||x4

e|-----------------|
B|-----------------|
G|-----------------|   
D|---5/10\7--------|
A|---5/10\7--------|
E|---5/10\7--------| 
   (After 4th time)

INTERLUDE:
[ Tab from: http://www.guitartabs.cc/tabs/b/blindside/this_is_a_heart_attack_tab.html ]
e|------------------------------------------------------------------|
B|------------------------------------------------------------------|
G|------------------------------------------------------------------|
D|------------------------------------------------------------------|
A|---2/4--4--4-------2/4--4--4-------2/4--5------2/4--5-------------|
E|---2/4--4--4-------2/4--4--4-------2/4--5------2/4--5-------------| :||x8

FILL:

e|--------------|
B|--------------|
G|--------------|   
D|---5/7--------|
A|---5/7--------|
E|---5/7--------|  :||x8

4th CHORUS:
e|----------------------------------------------|
B|-------------1-1--1-1-1-1-1-1-1-1-1-----------|
G|-------------2-2--2-2-2-2-2-2-2-2-2-----------|
D|---5/7----------------------------------------|
A|---5/7----------------------------------------|
E|---5/7----------------------------------------| :||x4

e|--------------|
B|--------------|
G|--------------|   
D|---5/7--------|
A|---5/7--------|
E|---5/7--------|  :||x4

e|----------------------------------------------|
B|-------------1-1--1-1-1-1-1-1-1-1-1-----------|
G|-------------2-2--2-2-2-2-2-2-2-2-2-----------|
D|---5/7----------------------------------------|
A|---5/7----------------------------------------|
E|---5/7----------------------------------------| :||x3

e|-----------------------------------------------|
B|-------------1-1--1-1-1-1-1-1-1-1-1------------|
G|-------------2-2--2-2-2-2-2-2-2-2-2------------|
D|---5/7-----------------------------------5/7---|
A|---5/7-----------------------------------5/7---|
E|---5/7-----------------------------------5/7---|




| /  slide up
| \  slide down
| h  hammer-on
| p  pull-off
| ~  vibrato
| +  harmonic
| x  Mute note
| p.m. Palm Mute
=============================================================================
Comments