Blindside - Sleepwalking Chords & Tabs

 

Sleepwalking Chords & Tabs

Blindside Chords & Tabs

Version: 2 Type: Tab 0 ratings
1 star 2 stars 3 stars 4 stars 5 stars
comments

Sleepwalking Tab

Band:  Blindside
Song:  Sleepwalking
Album:  Silence
Tabbed By:  Andrew Jackson
Tuning:  C#G#C#BbEb

Verse:

Ed|------------------------------------------------------------|
Bd|------------------------------------------------------------|
F#|------------------------------------------------------------|
C#|-2--2--4--4--X-X-X-X---2--4--4--X-X-X-X---2--2--4--4--------|
G#|-2--2--4--4------------2--4--4------------2--2--4--4--------|
C#|-2--2--4--4------------2--4--4------------2--2--4--4--------|

Ed|------------------------------------------------------------|
Bd|------------------------------------------------------------|
F#|------------------------------------------------------------|
C#|-X-X-X-X---2--4--4--X-X-X-X---2--2--4--4--X-X-X-X-----------|
G#|-----------2--4--4------------2--2--4--4--------------------|
C#|-----------2--4--4------------2--2--4--4--------------------|

Ed|------------------------------------------------------------|
Bd|------------------------------------------------------------|
F#|------------------------------------------------------------|
C#|-2--4--4--X-X-X-X---2--2--4--4--X-X-X-X---2--4—-4-X-X-X-X---|
G#|-2--4--4------------2--2--4--4------------2--4--4-----------|
C#|-2--4--4------------2--2--4--4------------2--4--4-----------|

Ed|------------------------------------------------------------|
Bd|------------------------------------------------------------|
F#|-2--3-------------------------------------------------------|
C#|-2--3-------------------------------------------------------|
G#|-0--1-------------------------------------------------------|
C#|------------------------------------------------------------|

Pre-Chorus:  “Could it be”

Ed|------------------------------------------------------------|
Bd|------------------------------------------------------------|
F#|------------------------------------------------------------|
C#|-4--4----2--2--4--4----2--2--4--4----2--2---4--4------------|
G#|-4--4----2--2--4--4----2--2--4--4----2--2---4--4------------|
C#|-4--4----2--2--4--4----2--2--4--4----2--2---4--4------------|
[ Tab from: http://www.guitartabs.cc/tabs/b/blindside/sleepwalking_tab_ver_2.html ]
Ed|------------------------------------------------------------|
Bd|------------------------------------------------------------|
F#|---------------------------------2--3--2--------------------|
C#|-2--2--4--4--X-X-X-X—------------2--3--2--------------------|
G#|-2--2--4--4----------(4 times)---0--1--0--------------------|
C#|-2--2--4--4-----------------------------------------------|

Chorus:

Ed|------------------------------------------------------------|
Bd|------------------------------------------------------------|
F#|-------9--7--5--4-----------9--7--5--7----------------------|
C#|-2--2--9--7--5--4--5--4--2--9--7--5--7----------------------|
G#|-2--2--7--5--3--2--5--4--2--7--5--3--5----------------------|
C#|-2--2--------------5--4—-2----------------------------------|

Play this after first chorus:

Ed|------------------------------------------------------------|
Bd|------------------------------------------------------------|
F#|------------------------------------------------------------|
C#|-6----------------------------------------------------------|
G#|-6----------------------------------------------------------|
C#|-6-(8 times)------------------------------------------------|

Break (Solo):

Ed|------------------------------------------------------------|
Bd|------------------------------------------------------------|
F#|-----0--5--4--0---------------------------------------------|
C#|2--------------0--2----------------(2X)---------------------|
G#|------------------------------3-----------------------------|
C#|---------------------2--4--5--------------------------------|

Ed|----------------------7h6h7---------------------------------|
Bd|----------------7h8----------8—7\5--------------------------|
F#|------0--5—3h4-----------------------4p0-----------2--------|
C#|---2---------------------------------------4h5--2--4--------|
G#|------------------------------------------------------------|
C#|-2----------------------------------------------------------|

Ed|------------------------------------------------------------|
Bd|------------------------------------------------------------|
F#|------0--5--4--0--------------------------------------------|
C#|--2---------------0--2--------------------------------------|
G#|---------------------------------3----(2X)------------------|
C#|-2----------------------2--4--5-----------------------------|

After Break:  “Goodbye”

Ed|------------------------------------------------------------|
Bd|------------------------------------------------------------|
F#|---------7-------5------------------------------------------|
C#|-2-------7-------5------------(2 times)---------------------|
G#|-2-------5-(8x)--3-(16x)------------------------------------|
C#|-2-(8X)-----------------------------------------------------|
Comments