Blindside - Sleepwalking Chords & Tabs

 

Sleepwalking Chords & Tabs

Blindside Chords & Tabs

Version: 1 Type: Bass Tab 0 ratings
1 star 2 stars 3 stars 4 stars 5 stars
comments

Sleepwalking Bass Tab

Drop D tuning

(Verse)
G|--------------------------------------------------|
D|--------------------------------------------------|
A|--------------------------------------------------|
D|--1-1-33----11-33----1-1-33----11-33--------------|
 
G|--------------------------------------------------|
D|--------------------------------------------------|
A|--------------------------------------------------|
D|--1-1-33----11-33----1-1-33----11-33--666-777-----|

G|--------------------------------------------------|
D|--------------------------------------------------|
A|--------------------------------------------------|
D|--1-1-33----11-33----1-1-33----11-33--------------|

G|--------------------------------------------------|
D|--------------------------------------------------|
A|--------------------------------------------------|
D|--1-1-33----11-33----1-1-33----11-33--------------|

G|--------------------------------------------------|
D|--------------------------------------------------|
A|--------------------------------------------------|
D|--1-1-33----11-33----1-1-33----11-33--6-6-7-7-6---|
[ Tab from: http://www.guitartabs.cc/tabs/b/blindside/sleepwalking_btab.html ]
(Chorus)
G|--------------------------------------------------|
D|--------------------------------------------------|
A|------------4----12---1-1-2-1---------------------|
D|--6/---1-------6----------------6-4---------------|

G|--------------------------------------------------|
D|--------------------------------------------------|
A|--------------------------------------------------|
D|--66--66--66--66----------------------------------|

(Bridge)
G|--------------------------------------------------|
D|--------------------------------------------------|
A|----------2---------------------------------------|
D|--1-----------------------------------------------|

G|--------------------------------------------------|
D|--------------------------------------------------|
A|---------12----1----------------------------------|
D|--1----6------------------------------------------|

G|--------------------------------------------------|
D|--------------------------------------------------|
A|---------------44444444-222222222222221-----------|
D|--11111111-------------------------------------4--|

Thanks, please rate it after you learn it.
Comments