Blindside - Roads Chords & Tabs

 

Roads Chords & Tabs

Blindside Chords & Tabs

Version: 3 Type: Tab 0 ratings
1 star 2 stars 3 stars 4 stars 5 stars
comments

Roads Tab

Roads By BlindSide
Intro/Chorus
e|-------------------|     X 7
B|--3/5--5-----------|
G|----------0--2~~~~~|
D|-------------------|
A|-------------------|
E|-------------------|
Verse
e--------------------|
b--------------------|
g--------------------|  x3
d---5/7-7------------|
a---3/5-5-5-7--------|
e---------3-5--------|
Verse
e--------------------|
b--------------------|
g--------------------|   
d---5/7-7------------|
a---3/5-5-7-5--------|
e---------5-3--------|

on the last time play this:

e|-------------------|
B|--3/5--5-----------|
G|----------2--0~~~~-|
D|-------------------|
A|-------------------|
E|-------------------|
[ Tab from: http://www.guitartabs.cc/tabs/b/blindside/roads_tab_ver_3.html ]
Comments