Blindside - Roads Chords & Tabs

 

Roads Chords & Tabs

Blindside Chords & Tabs

Version: 2 Type: Tab 0 ratings
1 star 2 stars 3 stars 4 stars 5 stars
comments

Roads Tab

   
-----------------------------------------------------------------------------
			     Roads - Blindside
-----------------------------------------------------------------------------
Tabbed by:MEEE!!!!
Email:BumOffBarney@hotmail.com 
email me if there are any problems and this is my first tab and i only have the
vereses and im working on the chorus

Tuning:Standard
[ Tab from: http://www.guitartabs.cc/tabs/b/blindside/roads_tab_ver_2.html ]
e|-------------------------------|     X 7
B|--3/5--5-----------------------|
G|----------0--2~~~~~------------|
D|-------------------------------|
A|-------------------------------|
E|-------------------------------|

on the last time play this:

e|-------------------------------|
B|--3/5--5-----------------------|
G|----------2--0~~~~-------------|
D|-------------------------------|
A|-------------------------------|
E|-------------------------------|




| /  slide up
| \  slide down
| h  hammer-on
| p  pull-off
| ~  vibrato
| +  harmonic
| x  Mute note
=============================================================================
Comments