Blindside - Pitiful Chords & Tabs

 

Pitiful Chords & Tabs

Blindside Chords & Tabs

Version: 7 Type: Tab 0 ratings
1 star 2 stars 3 stars 4 stars 5 stars
comments

Pitiful Tab

drop D tuning
(DADGBe)

pm= palm mute
()= dont hit that not just let ring
 /= slide up
 \= slide down

intro
-----------------------------|
-----------------------------|
-----------------------------|
---------------------------1-|
--0-0-6-4/9-9\(4)-6-4/9\4--1-|
--0-0----------------------1-|
pm...

-------------------------|
---------------7777-6666-|
--4-6/88888888-----------|
-------------------------|
-------------------------|
-------------------------|
pm.......................

Chorus
---------------------|---|
---------------------|---|
---------------------|---|Hit this the
---------------------|-1-|the fourth time
-6-4/9-9\(4)-6-4/9\4-|-1-|around.
---------------------|-1-|
[ Tab from: http://www.guitartabs.cc/tabs/b/blindside/pitiful_tab_ver_7.html ]
Bridge
------------------------------------------------------|
------------------------------------------------------|
------------------------------------------------------|
-111111113333333344443333--11111111133333333399998888-|x2
-111111113333333344443333--11111111133333333399998888-|
-111111113333333344443333--11111111133333333399998888-|

Solo
----------------------------------------------------|
-7-6/11-11\6-7-6/11-11\6-7-6/11-11\6-7-6/11-11\(6)--|
----------------------------------------------------|
----------------------------------------------------|
----------------------------------------------------|
----------------------------------------------------|

(continued solo)
------------13----|
-7-6-7-6/11----11-|
------------------|
------------------|x8
------------------|
------------------|

outro
-----------|
-7--6--11--|
-----------|
-----------|
-----------|
-----------|
Comments