Blindside - Pitiful Chords & Tabs

 

Pitiful Chords & Tabs

Blindside Chords & Tabs

Version: 6 Type: Tab 0 ratings
1 star 2 stars 3 stars 4 stars 5 stars
comments

Pitiful Tab

blindside - pitiful

tabbed by: jd
email: definistrate@hotmail.com


intro (and chorus):

e|----------------------------------------------------|
b|----------------------------------------------------|
g|--8--8-\-6-/-11--11-\-6-/-8--8-\-6-/-11-\-6---------|
d|---------------------------------------------1------|
a|--6--6-\-4-/-9---9--\-4-/-6--6-\-4-/-9--\-4--1------|
D|---------------------------------------------1------|

verse:
[ Tab from: http://www.guitartabs.cc/tabs/b/blindside/pitiful_tab_ver_6.html ]
e|----------------------------------------------------|
b|----------------------------------------------------|
g|--6-\-8--8-8-8-8-8-8-11-11-11-10-10-10-10-10-\------|
d|----------------------------------------------------|
a|----------------------------------------------------|
D|----------------------------------------------------|

bridge (solo?):

e|---------------------
b|--7-7-6-\-11-11-/-6-- repeat x4
g|---------------------
d|---------------------
a|---------------------
D|---------------------

e|--------------13----------|
b|--7-6-7-6-6\11--11-6------| repeat x8
g|--------------------------|
d|--------------------------|
a|--------------------------|
D|--------------------------|
Comments