Blindside - Pitiful Chords & Tabs

 

Pitiful Chords & Tabs

Blindside Chords & Tabs

Version: 5 Type: Tab 0 ratings
1 star 2 stars 3 stars 4 stars 5 stars
comments

Pitiful Tab

   
Key:
x =muted string
\ =slide down
/ =slide up
h =hammer on
p =pull off
~ =let ring


Intro: x1
e|-------------------------------|
B|-------------------------------|
G|-8-8\6-11-11\6-8-8\6-11--------|
D|-x-x-x-x--x--x-x-x-x-x---------|
A|-6-6\4-9--9-\4-6-6\4-9---------|
D|------------------------1-4-11-|

e|--------------------------------|
B|--------------------------------|
G|-8-8\6-11-11\6-8-8\6-11---------|
D|-x-x-x-x--x--x-x-x-x-x-------1~-|
A|-6-6\4-9--9-\4-6-6\4-9-------1~-|
D|------------------------1-4-11~-|

Verse: x8
e|----------------------------|
B|------------77766666--------|
G|-4/6-888888-----------------|
D|----------------------------|
A|----------------------------|
D|---------------------1-4-11-|

Chorus: x1
e|-------------------------------|
B|-------------------------------|
G|-8-8\6-11-11\6-8-8\6-11--------|
D|-x-x-x-x--x--x-x-x-x-x---------| x3
A|-6-6\4-9--9-\4-6-6\4-9---------|
D|------------------------1-4-11-|

e|--------------------------------|
B|--------------------------------|
G|-8-8\6-11-11\6-8-8\6-11---------|
D|-x-x-x-x--x--x-x-x-x-x-------1~-| x1
A|-6-6\4-9--9-\4-6-6\4-9-------1~-|
D|------------------------1-4-11~-|


Bridge 1: x1
e|----------------------------------|
B|----------------------------------|
G|----------------------------------|
D|-11111111333333334444444433333333-|
A|-11111111333333334444444433333333-|
D|-11111111333333334444444433333333-|
[ Tab from: http://www.guitartabs.cc/tabs/b/blindside/pitiful_tab_ver_5.html ]
e|------------------------------------------|
B|------------------------------------------|
G|------------------------------------------|
D|-1111111133333333444444449999999988888888-|
A|-1111111133333333444444449999999988888888-|
D|-1111111133333333444444449999999988888888-|

Solo: x1
e|-----------------|
B|-7-7p6-6/11-11\7-|
G|-----------------|
D|-----------------| x4
A|-----------------|
D|-----------------|

e|-----------13----|
B|-7p6-7p6/11--11\-|
G|-----------------|
D|-----------------| x8
A|-----------------|
D|-----------------|

Bridge 2: x1
e|--------|
B|--------|
G|--------|
D|--------|
A|--------|
D|-1-4-11-|

Chorus: x7
e|-------------------------------|
B|-------------------------------|
G|-8-8\6-11-11\6-8-8\6-11--------|
D|-x-x-x-x--x--x-x-x-x-x---------|
A|-6-6\4-9--9-\4-6-6\4-9---------|
D|------------------------1-4-11-|

Outro
e|---------------|
B|---------------|
G|-----11~-7~-6~-|
D|1~-------------|
A|1~-------------|
D|1~-------------|


-Song Setup-

Intro 
Verse
Chorus
Verse
Chorus
Bridge
Solo
Chorus
Outro

Great song. This is a different way to play the song. It's still right, but i
changed the tuning. I realized you could play this in regular drop D tuning, not
flat tuning, when i was fukin around one day. If you don't listen to the song and
you play the tab, it might sound fuked up so i suggest getting a hold of it.
E-mail me with questions and any other shyt you want at strivetofail@yahoo.com
Comments